  0
SECTION
  2
HEADER
  9
$ACADVER
  1
AC1014
  9
$ACADMAINTVER
 70
     5
  9
$DWGCODEPAGE
  3
ANSI_1252
  9
$INSBASE
 10
407.9
 20
343.6
 30
0.0
  9
$EXTMIN
 10
251.337347
 20
342.717413
 30
-0.000019
  9
$EXTMAX
 10
541.604393
 20
932.765629
 30
0.421764
  9
$LIMMIN
 10
0.0
 20
0.0
  9
$LIMMAX
 10
3360.0
 20
2376.0
  9
$ORTHOMODE
 70
     1
  9
$REGENMODE
 70
     1
  9
$FILLMODE
 70
     1
  9
$QTEXTMODE
 70
     0
  9
$MIRRTEXT
 70
     0
  9
$DRAGMODE
 70
     2
  9
$LTSCALE
 40
1.0
  9
$OSMODE
 70
     0
  9
$ATTMODE
 70
     1
  9
$TEXTSIZE
 40
3.5
  9
$TRACEWID
 40
0.05
  9
$TEXTSTYLE
  7
ROMANS
  9
$CLAYER
  8
035-DWG
  9
$CELTYPE
  6
BYLAYER
  9
$CECOLOR
 62
   256
  9
$CELTSCALE
 40
1.0
  9
$DELOBJ
 70
     1
  9
$DISPSILH
 70
     0
  9
$DIMSCALE
 40
8.0
  9
$DIMASZ
 40
2.5
  9
$DIMEXO
 40
1.5
  9
$DIMDLI
 40
5.0
  9
$DIMRND
 40
0.0
  9
$DIMDLE
 40
0.0
  9
$DIMEXE
 40
1.0
  9
$DIMTP
 40
0.0
  9
$DIMTM
 40
0.0
  9
$DIMTXT
 40
3.0
  9
$DIMCEN
 40
-2.0
  9
$DIMTSZ
 40
0.0
  9
$DIMTOL
 70
     0
  9
$DIMLIM
 70
     0
  9
$DIMTIH
 70
     0
  9
$DIMTOH
 70
     0
  9
$DIMSE1
 70
     0
  9
$DIMSE2
 70
     0
  9
$DIMTAD
 70
     1
  9
$DIMZIN
 70
     8
  9
$DIMBLK
  1

  9
$DIMASO
 70
     1
  9
$DIMSHO
 70
     1
  9
$DIMPOST
  1

  9
$DIMAPOST
  1

  9
$DIMALT
 70
     0
  9
$DIMALTD
 70
     2
  9
$DIMALTF
 40
25.4
  9
$DIMLFAC
 40
1.0
  9
$DIMTOFL
 70
     1
  9
$DIMTVP
 40
0.0
  9
$DIMTIX
 70
     0
  9
$DIMSOXD
 70
     0
  9
$DIMSAH
 70
     0
  9
$DIMBLK1
  1

  9
$DIMBLK2
  1

  9
$DIMSTYLE
  2
STANDAARD
  9
$DIMCLRD
 70
   256
  9
$DIMCLRE
 70
   256
  9
$DIMCLRT
 70
   256
  9
$DIMTFAC
 40
0.75
  9
$DIMGAP
 40
1.5
  9
$DIMJUST
 70
     0
  9
$DIMSD1
 70
     0
  9
$DIMSD2
 70
     0
  9
$DIMTOLJ
 70
     1
  9
$DIMTZIN
 70
     8
  9
$DIMALTZ
 70
     8
  9
$DIMALTTZ
 70
     8
  9
$DIMFIT
 70
     3
  9
$DIMUPT
 70
     0
  9
$DIMUNIT
 70
     2
  9
$DIMDEC
 70
     0
  9
$DIMTDEC
 70
     1
  9
$DIMALTU
 70
     2
  9
$DIMALTTD
 70
     2
  9
$DIMTXSTY
  7
ROMANS
  9
$DIMAUNIT
 70
     0
  9
$LUNITS
 70
     2
  9
$LUPREC
 70
     4
  9
$SKETCHINC
 40
0.1
  9
$FILLETRAD
 40
6.0
  9
$AUNITS
 70
     0
  9
$AUPREC
 70
     4
  9
$MENU
  1
wtb2
  9
$ELEVATION
 40
0.0
  9
$PELEVATION
 40
0.0
  9
$THICKNESS
 40
0.0
  9
$LIMCHECK
 70
     0
  9
$BLIPMODE
 70
     0
  9
$CHAMFERA
 40
0.0
  9
$CHAMFERB
 40
0.0
  9
$CHAMFERC
 40
0.0
  9
$CHAMFERD
 40
0.0
  9
$SKPOLY
 70
     0
  9
$TDCREATE
 40
2451578.409790035
  9
$TDUPDATE
 40
2452584.394580879
  9
$TDINDWG
 40
3.1205870139
  9
$TDUSRTIMER
 40
3.1205870139
  9
$USRTIMER
 70
     1
  9
$ANGBASE
 50
0.0
  9
$ANGDIR
 70
     0
  9
$PDMODE
 70
     3
  9
$PDSIZE
 40
0.0
  9
$PLINEWID
 40
0.0
  9
$COORDS
 70
     2
  9
$SPLFRAME
 70
     0
  9
$SPLINETYPE
 70
     6
  9
$SPLINESEGS
 70
     8
  9
$ATTDIA
 70
     0
  9
$ATTREQ
 70
     1
  9
$HANDLING
 70
     1
  9
$HANDSEED
  5
297
  9
$SURFTAB1
 70
     6
  9
$SURFTAB2
 70
     6
  9
$SURFTYPE
 70
     6
  9
$SURFU
 70
     6
  9
$SURFV
 70
     6
  9
$UCSNAME
  2

  9
$UCSORG
 10
0.0
 20
0.0
 30
0.0
  9
$UCSXDIR
 10
1.0
 20
0.0
 30
0.0
  9
$UCSYDIR
 10
0.0
 20
1.0
 30
0.0
  9
$PUCSNAME
  2

  9
$PUCSORG
 10
0.0
 20
0.0
 30
0.0
  9
$PUCSXDIR
 10
1.0
 20
0.0
 30
0.0
  9
$PUCSYDIR
 10
0.0
 20
1.0
 30
0.0
  9
$USERI1
 70
     0
  9
$USERI2
 70
     0
  9
$USERI3
 70
     0
  9
$USERI4
 70
     0
  9
$USERI5
 70
     0
  9
$USERR1
 40
0.0
  9
$USERR2
 40
0.0
  9
$USERR3
 40
0.0
  9
$USERR4
 40
0.0
  9
$USERR5
 40
0.0
  9
$WORLDVIEW
 70
     1
  9
$SHADEDGE
 70
     3
  9
$SHADEDIF
 70
    70
  9
$TILEMODE
 70
     1
  9
$MAXACTVP
 70
    16
  9
$PINSBASE
 10
0.0
 20
0.0
 30
0.0
  9
$PLIMCHECK
 70
     0
  9
$PEXTMIN
 10
1.000000E+20
 20
1.000000E+20
 30
1.000000E+20
  9
$PEXTMAX
 10
-1.000000E+20
 20
-1.000000E+20
 30
-1.000000E+20
  9
$PLIMMIN
 10
0.0
 20
0.0
  9
$PLIMMAX
 10
12.0
 20
9.0
  9
$UNITMODE
 70
     0
  9
$VISRETAIN
 70
     0
  9
$PLINEGEN
 70
     0
  9
$PSLTSCALE
 70
     0
  9
$TREEDEPTH
 70
  3020
  9
$PICKSTYLE
 70
     1
  9
$CMLSTYLE
  2
STANDARD
  9
$CMLJUST
 70
     0
  9
$CMLSCALE
 40
1.0
  9
$PROXYGRAPHICS
 70
     1
  9
$MEASUREMENT
 70
     0
  0
ENDSEC
  0
SECTION
  2
CLASSES
  0
CLASS
  1
LWPOLYLINE
  2
AcDbPolyline
  3
"AutoCAD"
 90
        0
280
     0
281
     1
  0
CLASS
  1
HATCH
  2
AcDbHatch
  3
"ACAD_SEDONA"
 90
        0
280
     0
281
     1
  0
CLASS
  1
ACMDATUMID
  2
AcmDatumId
  3
AutoCadMServices
 90
      255
280
     1
281
     1
  0
CLASS
  1
ACMFCFRAME
  2
AcmFCF
  3
AutoCadMServices
 90
      255
280
     1
281
     1
  0
CLASS
  1
AMLOADER
  2
AMLoader
  3
AMAcad
 90
        0
280
     0
281
     0
  0
ENDSEC
  0
SECTION
  2
TABLES
  0
TABLE
  2
VPORT
  5
12
100
AcDbSymbolTable
 70
     2
  0
VPORT
  5
296
100
AcDbSymbolTableRecord
100
AcDbViewportTableRecord
  2
*ACTIVE
 70
     0
 10
0.0
 20
0.0
 11
1.0
 21
1.0
 12
396.47087
 22
637.741521
 13
0.0
 23
0.0
 14
20.0
 24
20.0
 15
40.0
 25
40.0
 16
0.0
 26
0.0
 36
1.0
 17
0.0
 27
0.0
 37
0.0
 40
596.690409
 41
1.650376
 42
50.0
 43
0.0
 44
0.0
 50
0.0
 51
0.0
 71
     0
 72
 20000
 73
     1
 74
     0
 75
     0
 76
     0
 77
     0
 78
     1
  0
ENDTAB
  0
TABLE
  2
LTYPE
  5
D
100
AcDbSymbolTable
 70
     1
  0
LTYPE
  5
E
100
AcDbSymbolTableRecord
100
AcDbLinetypeTableRecord
  2
BYBLOCK
 70
     0
  3

 72
    65
 73
     0
 40
0.0
  0
LTYPE
  5
F
100
AcDbSymbolTableRecord
100
AcDbLinetypeTableRecord
  2
BYLAYER
 70
     0
  3

 72
    65
 73
     0
 40
0.0
  0
LTYPE
  5
5
100
AcDbSymbolTableRecord
100
AcDbLinetypeTableRecord
  2
CONTINUOUS
 70
     0
  3
Solid line
 72
    65
 73
     0
 40
0.0
  0
ENDTAB
  0
TABLE
  2
LAYER
  5
A
100
AcDbSymbolTable
 70
     6
  0
LAYER
  5
4
100
AcDbSymbolTableRecord
100
AcDbLayerTableRecord
  2
0
 70
     0
 62
     8
  6
CONTINUOUS
  0
LAYER
  5
22
100
AcDbSymbolTableRecord
100
AcDbLayerTableRecord
  2
025-DWG
 70
     0
 62
     7
  6
CONTINUOUS
  0
LAYER
  5
1B
100
AcDbSymbolTableRecord
100
AcDbLayerTableRecord
  2
035-DWG
 70
     0
 62
     2
  6
CONTINUOUS
  0
LAYER
  5
CF
100
AcDbSymbolTableRecord
100
AcDbLayerTableRecord
  2
DEFPOINTS
 70
     0
 62
     7
  6
CONTINUOUS
  0
LAYER
  5
44
100
AcDbSymbolTableRecord
100
AcDbLayerTableRecord
  2
VHH-025
 70
     0
 62
     7
  6
CONTINUOUS
  0
LAYER
  5
41
100
AcDbSymbolTableRecord
100
AcDbLayerTableRecord
  2
VHH-035
 70
     0
 62
     2
  6
CONTINUOUS
  0
ENDTAB
  0
TABLE
  2
STYLE
  5
B
100
AcDbSymbolTable
 70
     2
  0
STYLE
  5
C
100
AcDbSymbolTableRecord
100
AcDbTextStyleTableRecord
  2
STANDARD
 70
     0
 40
0.0
 41
1.0
 50
0.0
 71
     0
 42
15.0
  3
txt
  4

  0
STYLE
  5
1C
100
AcDbSymbolTableRecord
100
AcDbTextStyleTableRecord
  2
ROMANS
 70
     0
 40
0.0
 41
1.0
 50
0.0
 71
     0
 42
3.5
  3
romans
  4

  0
ENDTAB
  0
TABLE
  2
VIEW
  5
10
100
AcDbSymbolTable
 70
     0
  0
ENDTAB
  0
TABLE
  2
UCS
  5
11
100
AcDbSymbolTable
 70
     0
  0
ENDTAB
  0
TABLE
  2
APPID
  5
14
100
AcDbSymbolTable
 70
     1
  0
APPID
  5
15
100
AcDbSymbolTableRecord
100
AcDbRegAppTableRecord
  2
ACAD
 70
     0
  0
ENDTAB
  0
TABLE
  2
DIMSTYLE
  5
16
100
AcDbSymbolTable
 70
     1
  0
DIMSTYLE
105
1E
100
AcDbSymbolTableRecord
100
AcDbDimStyleTableRecord
  2
STANDAARD
 70
     0
  3

  4

  5

  6

  7

 40
8.0
 41
2.5
 42
1.5
 43
5.0
 44
1.0
 45
0.0
 46
0.0
 47
0.0
 48
0.0
140
3.0
141
-2.0
142
0.0
143
25.4
144
1.0
145
0.0
146
0.75
147
1.5
 71
     0
 72
     0
 73
     0
 74
     0
 75
     0
 76
     0
 77
     1
 78
     8
170
     0
171
     2
172
     1
173
     0
174
     0
175
     0
176
   256
177
   256
178
   256
270
     2
271
     0
272
     1
273
     2
274
     2
340
1C
275
     0
280
     0
281
     0
282
     0
283
     1
284
     8
285
     8
286
     8
287
     3
288
     0
  0
ENDTAB
  0
TABLE
  2
BLOCK_RECORD
  5
1
100
AcDbSymbolTable
 70
     0
  0
BLOCK_RECORD
  5
2
100
AcDbSymbolTableRecord
100
AcDbBlockTableRecord
  2
*MODEL_SPACE
  0
BLOCK_RECORD
  5
7
100
AcDbSymbolTableRecord
100
AcDbBlockTableRecord
  2
*PAPER_SPACE
  0
ENDTAB
  0
ENDSEC
  0
SECTION
  2
BLOCKS
  0
BLOCK
  5
3
100
AcDbEntity
  8
0
100
AcDbBlockBegin
  2
*MODEL_SPACE
 70
     0
 10
0.0
 20
0.0
 30
0.0
  3
*MODEL_SPACE
  1

  0
ENDBLK
  5
6
100
AcDbEntity
  8
0
100
AcDbBlockEnd
  0
BLOCK
  5
8
100
AcDbEntity
 67
     1
  8
0
100
AcDbBlockBegin
  2
*PAPER_SPACE
 70
     0
 10
0.0
 20
0.0
 30
0.0
  3
*PAPER_SPACE
  1

  0
ENDBLK
  5
9
100
AcDbEntity
 67
     1
  8
0
100
AcDbBlockEnd
  0
ENDSEC
  0
SECTION
  2
ENTITIES
  0
LINE
  5
1F
100
AcDbEntity
  8
035-DWG
100
AcDbLine
 10
304.5
 20
381.6
 30
0.0
 11
304.5
 21
722.592525
 31
0.0
  0
LINE
  5
20
100
AcDbEntity
  8
035-DWG
100
AcDbLine
 10
388.0
 20
382.7
 30
0.0
 11
388.0
 21
514.0
 31
0.0
  0
LINE
  5
21
100
AcDbEntity
  8
025-DWG
100
AcDbLine
 10
388.722071
 20
514.0
 30
0.0
 11
388.722071
 21
382.7
 31
0.0
  0
LINE
  5
23
100
AcDbEntity
  8
035-DWG
100
AcDbLine
 10
427.8
 20
514.0
 30
0.0
 11
427.8
 21
382.7
 31
0.0
  0
LINE
  5
24
100
AcDbEntity
  8
025-DWG
100
AcDbLine
 10
427.077929
 20
382.7
 30
0.0
 11
427.077929
 21
514.0
 31
0.0
  0
LINE
  5
25
100
AcDbEntity
  8
035-DWG
100
AcDbLine
 10
511.3
 20
381.6
 30
0.0
 11
511.3
 21
722.592525
 31
0.0
  0
LINE
  5
26
100
AcDbEntity
  8
025-DWG
100
AcDbLine
 10
427.077929
 20
382.7
 30
0.0
 11
388.722071
 21
382.7
 31
0.0
  0
LINE
  5
27
100
AcDbEntity
  8
035-DWG
100
AcDbLine
 10
388.772995
 20
382.2
 30
0.0
 11
427.027005
 21
382.2
 31
0.0
  0
LINE
  5
28
100
AcDbEntity
  8
035-DWG
100
AcDbLine
 10
506.25
 20
343.6
 30
0.0
 11
309.55
 21
343.6
 31
0.0
  0
LINE
  5
29
100
AcDbEntity
  8
035-DWG
100
AcDbLine
 10
511.3
 20
381.6
 30
0.0
 11
304.5
 21
381.6
 31
0.0
  0
LINE
  5
2A
100
AcDbEntity
  8
025-DWG
100
AcDbLine
 10
510.05
 20
373.6
 30
0.0
 11
305.75
 21
373.6
 31
0.0
  0
LINE
  5
2B
100
AcDbEntity
  8
035-DWG
100
AcDbLine
 10
305.75
 20
373.6
 30
0.0
 11
305.75
 21
347.4
 31
0.0
  0
ARC
  5
2C
100
AcDbEntity
  8
035-DWG
100
AcDbCircle
 10
309.55
 20
347.4
 30
0.0
 40
3.8
100
AcDbArc
 50
180.0
 51
270.0
  0
ARC
  5
2D
100
AcDbEntity
  8
035-DWG
100
AcDbCircle
 10
305.75
 20
377.6
 30
0.0
 40
4.0
100
AcDbArc
 50
90.0
 51
270.0
  0
LINE
  5
2E
100
AcDbEntity
  8
025-DWG
100
AcDbLine
 10
388.722071
 20
382.7
 30
0.0
 11
388.276722
 21
382.7
 31
0.0
  0
LINE
  5
2F
100
AcDbEntity
  8
025-DWG
100
AcDbLine
 10
388.0
 20
382.7
 30
0.0
 11
388.276722
 21
382.7
 31
0.0
  0
LINE
  5
30
100
AcDbEntity
  8
025-DWG
100
AcDbLine
 10
388.772995
 20
382.2
 30
0.0
 11
388.510422
 21
382.2
 31
0.0
  0
LWPOLYLINE
  5
31
100
AcDbEntity
  8
035-DWG
100
AcDbPolyline
 90
       17
 70
     0
 43
0.0
 10
388.510422
 20
382.2
 10
388.461614
 20
382.202367
 10
388.412075
 20
382.209507
 10
388.362718
 20
382.221475
 10
388.314458
 20
382.238327
 10
388.268161
 20
382.260004
 10
388.224508
 20
382.285982
 10
388.18413
 20
382.315619
 10
388.147662
 20
382.348274
 10
388.115503
 20
382.38337
 10
388.086144
 20
382.422297
 10
388.060277
 20
382.464465
 10
388.038596
 20
382.509283
 10
388.021677
 20
382.55611
 10
388.00962
 20
382.604102
 10
388.002401
 20
382.652364
 10
388.0
 20
382.7
  0
ELLIPSE
  5
32
100
AcDbEntity
  8
025-DWG
100
AcDbEllipse
 10
388.772995
 20
382.7
 30
0.0
 11
0.0000000000000372
 21
0.5
 31
0.0
210
0.0
220
0.0
230
-1.0
 40
0.101848
 41
3.141592653589058
 42
4.712388980384681
  0
LINE
  5
33
100
AcDbEntity
  8
035-DWG
100
AcDbLine
 10
510.05
 20
373.6
 30
0.0
 11
510.05
 21
347.4
 31
0.0
  0
ARC
  5
34
100
AcDbEntity
  8
035-DWG
100
AcDbCircle
 10
506.25
 20
347.4
 30
0.0
 40
3.8
100
AcDbArc
 50
270.0
 51
360.0
  0
LINE
  5
35
100
AcDbEntity
  8
025-DWG
100
AcDbLine
 10
427.523278
 20
382.7
 30
0.0
 11
427.077929
 21
382.7
 31
0.0
  0
LINE
  5
36
100
AcDbEntity
  8
025-DWG
100
AcDbLine
 10
427.289578
 20
382.2
 30
0.0
 11
427.027005
 21
382.2
 31
0.0
  0
LINE
  5
37
100
AcDbEntity
  8
025-DWG
100
AcDbLine
 10
427.523278
 20
382.7
 30
0.0
 11
427.8
 21
382.7
 31
0.0
  0
LWPOLYLINE
  5
38
100
AcDbEntity
  8
035-DWG
100
AcDbPolyline
 90
       17
 70
     0
 43
0.0
 10
427.8
 20
382.7
 10
427.797599
 20
382.652364
 10
427.79038
 20
382.604102
 10
427.778323
 20
382.55611
 10
427.761404
 20
382.509283
 10
427.739723
 20
382.464465
 10
427.713856
 20
382.422297
 10
427.684497
 20
382.38337
 10
427.652338
 20
382.348274
 10
427.61587
 20
382.315619
 10
427.575492
 20
382.285982
 10
427.531839
 20
382.260004
 10
427.485542
 20
382.238327
 10
427.437282
 20
382.221475
 10
427.387925
 20
382.209507
 10
427.338386
 20
382.202367
 10
427.289578
 20
382.2
  0
ELLIPSE
  5
39
100
AcDbEntity
  8
025-DWG
100
AcDbEllipse
 10
427.027005
 20
382.7
 30
0.0
 11
-0.0000000000000372
 21
0.5
 31
0.0
210
0.0
220
0.0
230
-1.0
 40
0.101848
 41
1.570796326794904
 42
3.141592653590524
  0
ARC
  5
3A
100
AcDbEntity
  8
035-DWG
100
AcDbCircle
 10
510.05
 20
377.6
 30
0.0
 40
4.0
100
AcDbArc
 50
270.0
 51
90.0
  0
LINE
  5
3B
100
AcDbEntity
  8
035-DWG
100
AcDbLine
 10
307.6
 20
874.970653
 30
0.0
 11
307.6
 21
793.069091
 31
0.0
  0
LINE
  5
3C
100
AcDbEntity
  8
035-DWG
100
AcDbLine
 10
508.2
 20
874.970653
 30
0.0
 11
508.2
 21
793.069091
 31
0.0
  0
LINE
  5
3D
100
AcDbEntity
  8
035-DWG
100
AcDbLine
 10
506.2
 20
791.069091
 30
0.0
 11
407.9
 21
791.069091
 31
0.0
  0
ARC
  5
3E
100
AcDbEntity
  8
035-DWG
100
AcDbCircle
 10
407.9
 20
765.632507
 30
0.0
 40
106.0
100
AcDbArc
 50
270.0
 51
0.0
  0
ARC
  5
3F
100
AcDbEntity
  8
035-DWG
100
AcDbCircle
 10
407.9
 20
765.632507
 30
0.0
 40
112.0
100
AcDbArc
 50
270.0
 51
357.672087
  0
ARC
  5
40
100
AcDbEntity
  8
VHH-035
100
AcDbCircle
 10
407.9
 20
564.456031
 30
0.0
 40
30.830292
100
AcDbArc
 50
67.223408
 51
112.776592
  0
ARC
  5
42
100
AcDbEntity
  8
VHH-035
100
AcDbCircle
 10
407.9
 20
565.669708
 30
0.0
 40
30.830292
100
AcDbArc
 50
67.013184
 51
112.986816
  0
LINE
  5
43
100
AcDbEntity
  8
VHH-025
100
AcDbLine
 10
413.764282
 20
538.2
 30
0.0
 11
415.574412
 21
538.2
 31
0.0
  0
LINE
  5
45
100
AcDbEntity
  8
VHH-035
100
AcDbLine
 10
391.9
 20
536.0
 30
0.0
 11
423.9
 21
536.0
 31
0.0
  0
LINE
  5
46
100
AcDbEntity
  8
VHH-035
100
AcDbLine
 10
391.9
 20
536.2
 30
0.0
 11
423.9
 21
536.2
 31
0.0
  0
LINE
  5
47
100
AcDbEntity
  8
VHH-035
100
AcDbLine
 10
422.816049
 20
546.5
 30
0.0
 11
392.983951
 21
546.5
 31
0.0
  0
LINE
  5
48
100
AcDbEntity
  8
VHH-035
100
AcDbLine
 10
414.9
 20
569.262377
 30
0.0
 11
411.9
 21
569.262377
 31
0.0
  0
LINE
  5
49
100
AcDbEntity
  8
VHH-035
100
AcDbLine
 10
423.77241
 20
510.0
 30
0.0
 11
392.02759
 21
510.0
 31
0.0
  0
LINE
  5
4A
100
AcDbEntity
  8
VHH-035
100
AcDbLine
 10
399.9
 20
493.0
 30
0.0
 11
415.9
 21
493.0
 31
0.0
  0
LINE
  5
4B
100
AcDbEntity
  8
VHH-035
100
AcDbLine
 10
399.9
 20
496.0
 30
0.0
 11
415.9
 21
496.0
 31
0.0
  0
LINE
  5
4C
100
AcDbEntity
  8
VHH-035
100
AcDbLine
 10
400.9
 20
490.0
 30
0.0
 11
414.9
 21
490.0
 31
0.0
  0
LINE
  5
4D
100
AcDbEntity
  8
035-DWG
100
AcDbLine
 10
407.9
 20
789.569091
 30
0.0
 11
509.2
 21
789.569091
 31
0.0
  0
LINE
  5
4E
100
AcDbEntity
  8
025-DWG
100
AcDbLine
 10
512.7
 20
786.069091
 30
0.0
 11
407.9
 21
786.069091
 31
0.0
  0
LINE
  5
4F
100
AcDbEntity
  8
035-DWG
100
AcDbLine
 10
512.7
 20
776.069091
 30
0.0
 11
303.1
 21
776.069091
 31
0.0
  0
LINE
  5
50
100
AcDbEntity
  8
035-DWG
100
AcDbLine
 10
414.15
 20
653.807029
 30
0.0
 11
414.15
 21
595.859846
 31
0.0
  0
LINE
  5
51
100
AcDbEntity
  8
035-DWG
100
AcDbLine
 10
388.077701
 20
655.400585
 30
0.0
 11
388.077701
 21
541.733332
 31
0.0
  0
LINE
  5
52
100
AcDbEntity
  8
025-DWG
100
AcDbLine
 10
389.596361
 20
655.138268
 30
0.0
 11
389.596361
 21
540.257556
 31
0.0
  0
LINE
  5
53
100
AcDbEntity
  8
025-DWG
100
AcDbLine
 10
401.006383
 20
653.844859
 30
0.0
 11
401.006383
 21
595.719416
 31
0.0
  0
LINE
  5
54
100
AcDbEntity
  8
035-DWG
100
AcDbLine
 10
401.65
 20
653.807029
 30
0.0
 11
401.65
 21
595.859846
 31
0.0
  0
ARC
  5
55
100
AcDbEntity
  8
035-DWG
100
AcDbCircle
 10
407.9
 20
765.632507
 30
0.0
 40
112.0
100
AcDbArc
 50
182.327913
 51
270.0
  0
LINE
  5
56
100
AcDbEntity
  8
VHH-025
100
AcDbLine
 10
400.225588
 20
538.2
 30
0.0
 11
400.714464
 21
546.3
 31
0.0
  0
LINE
  5
57
100
AcDbEntity
  8
VHH-025
100
AcDbLine
 10
400.225588
 20
538.2
 30
0.0
 11
400.352603
 21
545.75
 31
0.0
  0
LINE
  5
58
100
AcDbEntity
  8
VHH-025
100
AcDbLine
 10
402.035718
 20
538.2
 30
0.0
 11
402.132774
 21
545.75
 31
0.0
  0
LINE
  5
59
100
AcDbEntity
  8
VHH-025
100
AcDbLine
 10
396.995056
 20
538.2
 30
0.0
 11
397.689725
 21
546.3
 31
0.0
  0
LINE
  5
5A
100
AcDbEntity
  8
VHH-025
100
AcDbLine
 10
398.536488
 20
538.2
 30
0.0
 11
398.691458
 21
545.75
 31
0.0
  0
LINE
  5
5B
100
AcDbEntity
  8
VHH-025
100
AcDbLine
 10
396.995056
 20
538.2
 30
0.0
 11
397.175538
 21
545.75
 31
0.0
  0
LINE
  5
5C
100
AcDbEntity
  8
VHH-025
100
AcDbLine
 10
404.419734
 20
538.2
 30
0.0
 11
404.485302
 21
545.75
 31
0.0
  0
LINE
  5
5D
100
AcDbEntity
  8
VHH-025
100
AcDbLine
 10
404.419734
 20
538.2
 30
0.0
 11
404.672101
 21
546.3
 31
0.0
  0
LINE
  5
5E
100
AcDbEntity
  8
VHH-025
100
AcDbLine
 10
406.384825
 20
538.2
 30
0.0
 11
406.41787
 21
545.75
 31
0.0
  0
LINE
  5
5F
100
AcDbEntity
  8
VHH-025
100
AcDbLine
 10
411.380266
 20
538.2
 30
0.0
 11
411.127899
 21
546.3
 31
0.0
  0
LINE
  5
60
100
AcDbEntity
  8
VHH-025
100
AcDbLine
 10
411.380266
 20
538.2
 30
0.0
 11
411.314698
 21
545.75
 31
0.0
  0
LINE
  5
61
100
AcDbEntity
  8
VHH-025
100
AcDbLine
 10
413.764282
 20
538.2
 30
0.0
 11
413.667226
 21
545.75
 31
0.0
  0
LINE
  5
62
100
AcDbEntity
  8
VHH-025
100
AcDbLine
 10
409.415175
 20
538.2
 30
0.0
 11
409.38213
 21
545.75
 31
0.0
  0
LINE
  5
63
100
AcDbEntity
  8
VHH-035
100
AcDbLine
 10
392.234407
 20
545.776175
 30
0.0
 11
391.9
 21
536.2
 31
0.0
  0
LINE
  5
64
100
AcDbEntity
  8
VHH-025
100
AcDbLine
 10
392.749519
 20
538.2
 30
0.0
 11
393.724154
 21
546.3
 31
0.0
  0
LINE
  5
65
100
AcDbEntity
  8
VHH-025
100
AcDbLine
 10
392.749519
 20
538.2
 30
0.0
 11
393.000267
 21
545.75
 31
0.0
  0
LINE
  5
66
100
AcDbEntity
  8
VHH-025
100
AcDbLine
 10
392.252008
 20
538.2
 30
0.0
 11
392.51099
 21
545.75
 31
0.0
  0
LINE
  5
67
100
AcDbEntity
  8
VHH-025
100
AcDbLine
 10
393.485962
 20
538.2
 30
0.0
 11
393.724521
 21
545.75
 31
0.0
  0
LINE
  5
68
100
AcDbEntity
  8
VHH-025
100
AcDbLine
 10
394.449722
 20
538.2
 30
0.0
 11
395.306534
 21
546.3
 31
0.0
  0
LINE
  5
69
100
AcDbEntity
  8
VHH-025
100
AcDbLine
 10
394.449722
 20
538.2
 30
0.0
 11
394.672331
 21
545.75
 31
0.0
  0
LINE
  5
6A
100
AcDbEntity
  8
VHH-025
100
AcDbLine
 10
395.625602
 20
538.2
 30
0.0
 11
395.828749
 21
545.75
 31
0.0
  0
LINE
  5
6B
100
AcDbEntity
  8
VHH-025
100
AcDbLine
 10
392.001276
 20
538.2
 30
0.0
 11
392.348581
 21
541.015347
 31
0.0
  0
LINE
  5
6C
100
AcDbEntity
  8
VHH-025
100
AcDbLine
 10
392.001276
 20
538.2
 30
0.0
 11
392.264408
 21
545.75
 31
0.0
  0
LINE
  5
6D
100
AcDbEntity
  8
VHH-035
100
AcDbLine
 10
391.702429
 20
530.342309
 30
0.0
 11
385.723349
 21
540.180215
 31
0.0
  0
LINE
  5
6E
100
AcDbEntity
  8
VHH-035
100
AcDbLine
 10
385.712162
 20
540.120896
 30
0.0
 11
384.8
 21
514.0
 31
0.0
  0
LINE
  5
6F
100
AcDbEntity
  8
VHH-035
100
AcDbLine
 10
399.9
 20
491.0
 30
0.0
 11
399.9
 21
493.0
 31
0.0
  0
ARC
  5
70
100
AcDbEntity
  8
VHH-035
100
AcDbCircle
 10
400.9
 20
491.0
 30
0.0
 40
1.0
100
AcDbArc
 50
180.0
 51
270.0
  0
LINE
  5
71
100
AcDbEntity
  8
VHH-025
100
AcDbLine
 10
409.415175
 20
538.2
 30
0.0
 11
411.380266
 21
538.2
 31
0.0
  0
LINE
  5
72
100
AcDbEntity
  8
VHH-025
100
AcDbLine
 10
406.384825
 20
538.2
 30
0.0
 11
404.419734
 21
538.2
 31
0.0
  0
LINE
  5
73
100
AcDbEntity
  8
VHH-025
100
AcDbLine
 10
398.536488
 20
538.2
 30
0.0
 11
396.995056
 21
538.2
 31
0.0
  0
LINE
  5
74
100
AcDbEntity
  8
VHH-025
100
AcDbLine
 10
402.035718
 20
538.2
 30
0.0
 11
400.225588
 21
538.2
 31
0.0
  0
LINE
  5
75
100
AcDbEntity
  8
VHH-025
100
AcDbLine
 10
395.625602
 20
538.2
 30
0.0
 11
394.449722
 21
538.2
 31
0.0
  0
LINE
  5
76
100
AcDbEntity
  8
VHH-025
100
AcDbLine
 10
392.252008
 20
538.2
 30
0.0
 11
391.969842
 21
538.2
 31
0.0
  0
LINE
  5
77
100
AcDbEntity
  8
VHH-025
100
AcDbLine
 10
393.485962
 20
538.2
 30
0.0
 11
392.749519
 21
538.2
 31
0.0
  0
ARC
  5
78
100
AcDbEntity
  8
VHH-035
100
AcDbCircle
 10
397.9
 20
508.0
 30
0.0
 40
2.0
100
AcDbArc
 50
360.0
 51
90.0
  0
ARC
  5
79
100
AcDbEntity
  8
VHH-035
100
AcDbCircle
 10
397.9
 20
494.5
 30
0.0
 40
2.5
100
AcDbArc
 50
323.130102
 51
36.869898
  0
LINE
  5
7A
100
AcDbEntity
  8
VHH-035
100
AcDbLine
 10
399.9
 20
496.0
 30
0.0
 11
399.9
 21
508.0
 31
0.0
  0
LINE
  5
7B
100
AcDbEntity
  8
VHH-035
100
AcDbLine
 10
391.131743
 20
514.0
 30
0.0
 11
384.8
 21
514.0
 31
0.0
  0
ARC
  5
7C
100
AcDbEntity
  8
VHH-035
100
AcDbCircle
 10
392.02759
 20
511.0
 30
0.0
 40
1.0
100
AcDbArc
 50
178.0
 51
270.0
  0
LINE
  5
7D
100
AcDbEntity
  8
VHH-035
100
AcDbLine
 10
391.9
 20
536.0
 30
0.0
 11
391.028199
 21
511.034899
 31
0.0
  0
ARC
  5
7E
100
AcDbEntity
  8
VHH-035
100
AcDbCircle
 10
422.9
 20
587.905661
 30
0.0
 40
30.0
100
AcDbArc
 50
178.823117
 51
211.002719
  0
ARC
  5
7F
100
AcDbEntity
  8
VHH-035
100
AcDbCircle
 10
422.812772
 20
585.573745
 30
0.0
 40
30.0
100
AcDbArc
 50
180.0
 51
205.86493
  0
LINE
  5
80
100
AcDbEntity
  8
VHH-035
100
AcDbLine
 10
400.4
 20
546.5
 30
0.0
 11
413.9
 21
546.5
 31
0.0
  0
ARC
  5
81
100
AcDbEntity
  8
VHH-025
100
AcDbCircle
 10
409.960415
 20
545.801283
 30
0.0
 40
1.355254
100
AcDbArc
 50
357.831411
 51
31.035013
  0
ARC
  5
82
100
AcDbEntity
  8
VHH-025
100
AcDbCircle
 10
407.496469
 20
545.88672
 30
0.0
 40
1.890611
100
AcDbArc
 50
355.853014
 51
18.928126
  0
ARC
  5
83
100
AcDbEntity
  8
VHH-025
100
AcDbCircle
 10
403.074716
 20
545.820569
 30
0.0
 40
0.944582
100
AcDbArc
 50
134.003849
 51
184.284497
  0
ARC
  5
84
100
AcDbEntity
  8
VHH-025
100
AcDbCircle
 10
408.303531
 20
545.88672
 30
0.0
 40
1.890611
100
AcDbArc
 50
161.071874
 51
184.146986
  0
ARC
  5
85
100
AcDbEntity
  8
VHH-025
100
AcDbCircle
 10
405.839585
 20
545.801283
 30
0.0
 40
1.355254
100
AcDbArc
 50
148.964987
 51
182.168589
  0
ARC
  5
86
100
AcDbEntity
  8
VHH-025
100
AcDbCircle
 10
401.346715
 20
545.722576
 30
0.0
 40
0.99449
100
AcDbArc
 50
128.580625
 51
178.419809
  0
ARC
  5
87
100
AcDbEntity
  8
VHH-025
100
AcDbCircle
 10
397.952937
 20
545.762464
 30
0.0
 40
0.777499
100
AcDbArc
 50
108.449943
 51
180.918575
  0
ARC
  5
88
100
AcDbEntity
  8
VHH-025
100
AcDbCircle
 10
399.495459
 20
545.774683
 30
0.0
 40
0.804379
100
AcDbArc
 50
115.616291
 51
181.758476
  0
ARC
  5
89
100
AcDbEntity
  8
VHH-025
100
AcDbCircle
 10
401.051503
 20
546.246677
 30
0.0
 40
0.34123
100
AcDbArc
 50
132.065275
 51
171.0097
  0
ARC
  5
8A
100
AcDbEntity
  8
VHH-025
100
AcDbCircle
 10
397.869166
 20
546.321112
 30
0.0
 40
0.180679
100
AcDbArc
 50
98.074916
 51
186.710338
  0
ARC
  5
8B
100
AcDbEntity
  8
VHH-025
100
AcDbCircle
 10
405.093258
 20
546.289972
 30
0.0
 40
0.421276
100
AcDbArc
 50
150.095791
 51
178.636048
  0
ARC
  5
8C
100
AcDbEntity
  8
VHH-025
100
AcDbCircle
 10
412.725284
 20
545.820569
 30
0.0
 40
0.944582
100
AcDbArc
 50
355.715503
 51
45.996151
  0
ARC
  5
8D
100
AcDbEntity
  8
VHH-025
100
AcDbCircle
 10
410.706742
 20
546.289972
 30
0.0
 40
0.421276
100
AcDbArc
 50
1.363952
 51
29.904209
  0
ARC
  5
8E
100
AcDbEntity
  8
VHH-035
100
AcDbCircle
 10
392.983951
 20
545.75
 30
0.0
 40
0.75
100
AcDbArc
 50
90.0
 51
178.0
  0
ARC
  5
8F
100
AcDbEntity
  8
VHH-025
100
AcDbCircle
 10
393.798188
 20
545.702213
 30
0.0
 40
0.799351
100
AcDbArc
 50
93.584
 51
176.572659
  0
ARC
  5
90
100
AcDbEntity
  8
VHH-025
100
AcDbCircle
 10
394.575138
 20
545.657295
 30
0.0
 40
0.855654
100
AcDbArc
 50
99.980708
 51
173.780152
  0
ARC
  5
91
100
AcDbEntity
  8
VHH-025
100
AcDbCircle
 10
395.432209
 20
545.74734
 30
0.0
 40
0.759883
100
AcDbArc
 50
97.905868
 51
179.799397
  0
ARC
  5
92
100
AcDbEntity
  8
VHH-025
100
AcDbCircle
 10
395.54903
 20
546.259874
 30
0.0
 40
0.245793
100
AcDbArc
 50
102.326831
 51
170.604314
  0
ARC
  5
93
100
AcDbEntity
  8
VHH-025
100
AcDbCircle
 10
393.937333
 20
546.286574
 30
0.0
 40
0.213601
100
AcDbArc
 50
92.321809
 51
176.396337
  0
ARC
  5
94
100
AcDbEntity
  8
VHH-025
100
AcDbCircle
 10
393.343463
 20
545.666262
 30
0.0
 40
0.836674
100
AcDbArc
 50
94.801375
 51
174.255958
  0
ARC
  5
95
100
AcDbEntity
  8
VHH-025
100
AcDbCircle
 10
396.651553
 20
545.707334
 30
0.0
 40
0.823909
100
AcDbArc
 50
105.829218
 51
177.031654
  0
ARC
  5
96
100
AcDbEntity
  8
VHH-025
100
AcDbCircle
 10
393.031842
 20
545.732393
 30
0.0
 40
0.767636
100
AcDbArc
 50
89.502437
 51
178.68571
  0
LINE
  5
97
100
AcDbEntity
  8
VHH-035
100
AcDbLine
 10
394.9
 20
546.5
 30
0.0
 11
403.9
 21
546.5
 31
0.0
  0
LINE
  5
98
100
AcDbEntity
  8
VHH-035
100
AcDbLine
 10
411.9
 20
569.262377
 30
0.0
 11
411.9
 21
546.5
 31
0.0
  0
LINE
  5
99
100
AcDbEntity
  8
VHH-035
100
AcDbLine
 10
400.9
 20
569.262377
 30
0.0
 11
403.9
 21
569.262377
 31
0.0
  0
ARC
  5
9A
100
AcDbEntity
  8
VHH-035
100
AcDbCircle
 10
380.9
 20
562.666802
 30
0.0
 40
19.0
100
AcDbArc
 50
0.0
 51
31.002719
  0
ARC
  5
9B
100
AcDbEntity
  8
VHH-035
100
AcDbCircle
 10
395.236791
 20
554.614696
 30
0.0
 40
0.336791
100
AcDbArc
 50
126.713382
 51
180.0
  0
LINE
  5
9C
100
AcDbEntity
  8
VHH-035
100
AcDbLine
 10
403.9
 20
552.5
 30
0.0
 11
406.9
 21
552.5
 31
0.0
  0
LINE
  5
9D
100
AcDbEntity
  8
VHH-035
100
AcDbLine
 10
403.9
 20
549.0
 30
0.0
 11
406.9
 21
549.0
 31
0.0
  0
ARC
  5
9E
100
AcDbEntity
  8
VHH-035
100
AcDbCircle
 10
400.4
 20
553.980827
 30
0.0
 40
0.5
100
AcDbArc
 50
180.0
 51
270.0
  0
LINE
  5
9F
100
AcDbEntity
  8
VHH-035
100
AcDbLine
 10
400.9
 20
553.480827
 30
0.0
 11
400.4
 21
553.480827
 31
0.0
  0
ARC
  5
A0
100
AcDbEntity
  8
VHH-035
100
AcDbCircle
 10
400.9
 20
585.211504
 30
0.0
 40
31.730678
100
AcDbArc
 50
265.524166
 51
270.0
  0
ARC
  5
A1
100
AcDbEntity
  8
VHH-035
100
AcDbCircle
 10
397.920507
 20
560.497024
 30
0.0
 40
6.802401
100
AcDbArc
 50
245.475929
 51
259.298549
  0
ARC
  5
A2
100
AcDbEntity
  8
VHH-035
100
AcDbCircle
 10
395.236791
 20
554.614696
 30
0.0
 40
0.336791
100
AcDbArc
 50
180.0
 51
245.475929
  0
ARC
  5
A3
100
AcDbEntity
  8
VHH-035
100
AcDbCircle
 10
399.704279
 20
569.936055
 30
0.0
 40
16.408501
100
AcDbArc
 50
259.298549
 51
265.524166
  0
LINE
  5
A4
100
AcDbEntity
  8
VHH-035
100
AcDbLine
 10
399.03
 20
553.535977
 30
0.0
 11
399.03
 21
546.5
 31
0.0
  0
LINE
  5
A5
100
AcDbEntity
  8
VHH-035
100
AcDbLine
 10
394.9
 20
554.614696
 30
0.0
 11
394.9
 21
546.5
 31
0.0
  0
LINE
  5
A6
100
AcDbEntity
  8
VHH-035
100
AcDbLine
 10
406.9
 20
552.5
 30
0.0
 11
406.9
 21
549.0
 31
0.0
  0
LINE
  5
A7
100
AcDbEntity
  8
VHH-035
100
AcDbLine
 10
408.9
 20
552.5
 30
0.0
 11
408.9
 21
549.0
 31
0.0
  0
ARC
  5
A8
100
AcDbEntity
  8
VHH-035
100
AcDbCircle
 10
393.242016
 20
557.289588
 30
0.0
 40
3.0
100
AcDbArc
 50
306.713382
 51
335.153799
  0
ARC
  5
A9
100
AcDbEntity
  8
VHH-035
100
AcDbCircle
 10
405.56642
 20
513.183364
 30
0.0
 40
31.433336
100
AcDbArc
 50
115.391273
 51
120.917573
  0
ARC
  5
AA
100
AcDbEntity
  8
VHH-035
100
AcDbCircle
 10
407.9
 20
520.0
 30
0.0
 40
30.0
100
AcDbArc
 50
132.324857
 51
137.548675
  0
ARC
  5
AB
100
AcDbEntity
  8
VHH-035
100
AcDbCircle
 10
385.91204
 20
540.113916
 30
0.0
 40
0.2
100
AcDbArc
 50
137.548675
 51
178.0
  0
LINE
  5
AC
100
AcDbEntity
  8
VHH-035
100
AcDbLine
 10
387.7
 20
542.180171
 30
0.0
 11
389.407295
 21
540.160356
 31
0.0
  0
LINE
  5
AD
100
AcDbEntity
  8
VHH-035
100
AcDbLine
 10
399.9
 20
553.980827
 30
0.0
 11
399.9
 21
562.666802
 31
0.0
  0
LINE
  5
AE
100
AcDbEntity
  8
VHH-035
100
AcDbLine
 10
400.9
 20
569.262377
 30
0.0
 11
400.9
 21
548.631237
 31
0.0
  0
LINE
  5
AF
100
AcDbEntity
  8
VHH-035
100
AcDbLine
 10
403.9
 20
569.262377
 30
0.0
 11
403.9
 21
546.5
 31
0.0
  0
ARC
  5
B0
100
AcDbEntity
  8
VHH-035
100
AcDbCircle
 10
378.527071
 20
564.103251
 30
0.0
 40
19.215907
100
AcDbArc
 50
335.153799
 51
25.86493
  0
LINE
  5
B1
100
AcDbEntity
  8
VHH-035
100
AcDbLine
 10
408.9
 20
552.5
 30
0.0
 11
411.9
 21
552.5
 31
0.0
  0
LINE
  5
B2
100
AcDbEntity
  8
VHH-035
100
AcDbLine
 10
408.9
 20
549.0
 30
0.0
 11
411.9
 21
549.0
 31
0.0
  0
LINE
  5
B3
100
AcDbEntity
  8
VHH-035
100
AcDbLine
 10
411.9
 20
556.5
 30
0.0
 11
403.9
 21
556.5
 31
0.0
  0
LINE
  5
B4
100
AcDbEntity
  8
VHH-035
100
AcDbLine
 10
392.812772
 20
585.573745
 30
0.0
 11
392.812772
 21
589.448939
 31
0.0
  0
ARC
  5
B5
100
AcDbEntity
  8
VHH-035
100
AcDbCircle
 10
397.812772
 20
589.448939
 30
0.0
 40
5.0
100
AcDbArc
 50
112.986816
 51
180.0
  0
ARC
  5
B6
100
AcDbEntity
  8
VHH-035
100
AcDbCircle
 10
397.900089
 20
588.272112
 30
0.0
 40
5.0
100
AcDbArc
 50
112.776592
 51
177.137226
  0
ARC
  5
B7
100
AcDbEntity
  8
035-DWG
100
AcDbCircle
 10
407.9
 20
765.632507
 30
0.0
 40
106.0
100
AcDbArc
 50
180.0
 51
270.0
  0
LINE
  5
B8
100
AcDbEntity
  8
025-DWG
100
AcDbLine
 10
401.006383
 20
764.840589
 30
0.0
 11
401.006383
 21
659.856904
 31
0.0
  0
LINE
  5
B9
100
AcDbEntity
  8
035-DWG
100
AcDbLine
 10
401.65
 20
764.859311
 30
0.0
 11
401.65
 21
659.816924
 31
0.0
  0
LINE
  5
BA
100
AcDbEntity
  8
025-DWG
100
AcDbLine
 10
389.596361
 20
764.215704
 30
0.0
 11
389.596361
 21
661.224764
 31
0.0
  0
LINE
  5
BB
100
AcDbEntity
  8
035-DWG
100
AcDbLine
 10
388.077701
 20
763.377
 30
0.0
 11
388.077701
 21
661.502413
 31
0.0
  0
LINE
  5
BC
100
AcDbEntity
  8
035-DWG
100
AcDbLine
 10
414.15
 20
764.859311
 30
0.0
 11
414.15
 21
659.816924
 31
0.0
  0
LINE
  5
BD
100
AcDbEntity
  8
035-DWG
100
AcDbLine
 10
309.6
 20
791.069091
 30
0.0
 11
407.9
 21
791.069091
 31
0.0
  0
LINE
  5
BE
100
AcDbEntity
  8
025-DWG
100
AcDbLine
 10
303.1
 20
786.069091
 30
0.0
 11
407.9
 21
786.069091
 31
0.0
  0
LINE
  5
BF
100
AcDbEntity
  8
035-DWG
100
AcDbLine
 10
407.9
 20
789.569091
 30
0.0
 11
306.6
 21
789.569091
 31
0.0
  0
LINE
  5
C0
100
AcDbEntity
  8
035-DWG
100
AcDbLine
 10
304.5
 20
742.299268
 30
0.0
 11
304.5
 21
776.069091
 31
0.0
  0
LINE
  5
C1
100
AcDbEntity
  8
035-DWG
100
AcDbLine
 10
297.96443
 20
768.421358
 30
0.0
 11
297.96443
 21
770.703511
 31
0.0
  0
LINE
  5
C2
100
AcDbEntity
  8
035-DWG
100
AcDbLine
 10
299.4
 20
764.582006
 30
0.0
 11
299.4
 21
772.41512
 31
0.0
  0
LINE
  5
C3
100
AcDbEntity
  8
035-DWG
100
AcDbLine
 10
301.9
 20
765.632507
 30
0.0
 11
301.9
 21
772.41512
 31
0.0
  0
ARC
  5
C4
100
AcDbEntity
  8
035-DWG
100
AcDbCircle
 10
295.9
 20
764.582006
 30
0.0
 40
3.5
100
AcDbArc
 50
270.0
 51
0.0
  0
LINE
  5
C5
100
AcDbEntity
  8
035-DWG
100
AcDbLine
 10
299.4
 20
768.421358
 30
0.0
 11
297.96443
 21
768.421358
 31
0.0
  0
LINE
  5
C6
100
AcDbEntity
  8
035-DWG
100
AcDbLine
 10
304.5
 20
768.421358
 30
0.0
 11
301.9
 21
768.421358
 31
0.0
  0
LINE
  5
C7
100
AcDbEntity
  8
035-DWG
100
AcDbLine
 10
301.9
 20
766.403162
 30
0.0
 11
299.4
 21
766.403162
 31
0.0
  0
ARC
  5
C8
100
AcDbEntity
  8
035-DWG
100
AcDbCircle
 10
309.6
 20
793.069091
 30
0.0
 40
2.0
100
AcDbArc
 50
180.0
 51
270.0
  0
ARC
  5
C9
100
AcDbEntity
  8
035-DWG
100
AcDbCircle
 10
314.05
 20
792.369091
 30
0.0
 40
2.8
100
AcDbArc
 50
207.664004
 51
332.335996
  0
LINE
  5
CA
100
AcDbEntity
  8
035-DWG
100
AcDbLine
 10
299.4
 20
770.703511
 30
0.0
 11
297.96443
 21
770.703511
 31
0.0
  0
LINE
  5
CB
100
AcDbEntity
  8
035-DWG
100
AcDbLine
 10
304.5
 20
770.703511
 30
0.0
 11
301.9
 21
770.703511
 31
0.0
  0
LINE
  5
CC
100
AcDbEntity
  8
035-DWG
100
AcDbLine
 10
301.9
 20
772.41512
 30
0.0
 11
299.4
 21
772.41512
 31
0.0
  0
LINE
  5
CD
100
AcDbEntity
  8
035-DWG
100
AcDbLine
 10
303.1
 20
786.069091
 30
0.0
 11
303.1
 21
776.069091
 31
0.0
  0
POINT
  5
CE
100
AcDbEntity
  8
DEFPOINTS
  6
BYBLOCK
 62
     0
100
AcDbPoint
 10
306.6
 20
789.569091
 30
0.0
  0
ARC
  5
D0
100
AcDbEntity
  8
035-DWG
100
AcDbCircle
 10
306.6
 20
786.069091
 30
0.0
 40
3.5
100
AcDbArc
 50
90.0
 51
180.0
  0
LINE
  5
D1
100
AcDbEntity
  8
025-DWG
100
AcDbLine
 10
414.793617
 20
653.844859
 30
0.0
 11
414.793617
 21
595.719416
 31
0.0
  0
LINE
  5
D2
100
AcDbEntity
  8
035-DWG
100
AcDbLine
 10
427.722299
 20
655.400585
 30
0.0
 11
427.722299
 21
541.733332
 31
0.0
  0
LINE
  5
D3
100
AcDbEntity
  8
025-DWG
100
AcDbLine
 10
426.203639
 20
655.138268
 30
0.0
 11
426.203639
 21
540.257556
 31
0.0
  0
LINE
  5
D4
100
AcDbEntity
  8
VHH-035
100
AcDbLine
 10
430.087838
 20
540.120896
 30
0.0
 11
431.0
 21
514.0
 31
0.0
  0
LINE
  5
D5
100
AcDbEntity
  8
VHH-035
100
AcDbLine
 10
423.9
 20
536.2
 30
0.0
 11
423.565593
 21
545.776175
 31
0.0
  0
LINE
  5
D6
100
AcDbEntity
  8
VHH-025
100
AcDbLine
 10
423.050481
 20
538.2
 30
0.0
 11
422.799733
 21
545.75
 31
0.0
  0
LINE
  5
D7
100
AcDbEntity
  8
VHH-025
100
AcDbLine
 10
423.050481
 20
538.2
 30
0.0
 11
422.075846
 21
546.3
 31
0.0
  0
LINE
  5
D8
100
AcDbEntity
  8
VHH-025
100
AcDbLine
 10
415.574412
 20
538.2
 30
0.0
 11
415.447397
 21
545.75
 31
0.0
  0
LINE
  5
D9
100
AcDbEntity
  8
VHH-025
100
AcDbLine
 10
415.574412
 20
538.2
 30
0.0
 11
415.085536
 21
546.3
 31
0.0
  0
LINE
  5
DA
100
AcDbEntity
  8
VHH-025
100
AcDbLine
 10
418.804944
 20
538.2
 30
0.0
 11
418.624462
 21
545.75
 31
0.0
  0
LINE
  5
DB
100
AcDbEntity
  8
VHH-025
100
AcDbLine
 10
417.263512
 20
538.2
 30
0.0
 11
417.108542
 21
545.75
 31
0.0
  0
LINE
  5
DC
100
AcDbEntity
  8
VHH-025
100
AcDbLine
 10
418.804944
 20
538.2
 30
0.0
 11
418.110275
 21
546.3
 31
0.0
  0
LINE
  5
DD
100
AcDbEntity
  8
VHH-025
100
AcDbLine
 10
420.174398
 20
538.2
 30
0.0
 11
419.971251
 21
545.75
 31
0.0
  0
LINE
  5
DE
100
AcDbEntity
  8
VHH-025
100
AcDbLine
 10
421.350278
 20
538.2
 30
0.0
 11
421.127669
 21
545.75
 31
0.0
  0
LINE
  5
DF
100
AcDbEntity
  8
VHH-025
100
AcDbLine
 10
421.350278
 20
538.2
 30
0.0
 11
420.493466
 21
546.3
 31
0.0
  0
LINE
  5
E0
100
AcDbEntity
  8
VHH-025
100
AcDbLine
 10
422.314038
 20
538.2
 30
0.0
 11
422.075479
 21
545.75
 31
0.0
  0
LINE
  5
E1
100
AcDbEntity
  8
VHH-025
100
AcDbLine
 10
423.547992
 20
538.2
 30
0.0
 11
423.28901
 21
545.75
 31
0.0
  0
LINE
  5
E2
100
AcDbEntity
  8
VHH-025
100
AcDbLine
 10
423.798724
 20
538.2
 30
0.0
 11
423.451419
 21
541.015347
 31
0.0
  0
LINE
  5
E3
100
AcDbEntity
  8
VHH-025
100
AcDbLine
 10
423.798724
 20
538.2
 30
0.0
 11
423.535592
 21
545.75
 31
0.0
  0
LINE
  5
E4
100
AcDbEntity
  8
VHH-035
100
AcDbLine
 10
424.097571
 20
530.342309
 30
0.0
 11
430.076651
 21
540.180215
 31
0.0
  0
LINE
  5
E5
100
AcDbEntity
  8
VHH-035
100
AcDbLine
 10
415.9
 20
491.0
 30
0.0
 11
415.9
 21
493.0
 31
0.0
  0
ARC
  5
E6
100
AcDbEntity
  8
VHH-035
100
AcDbCircle
 10
414.9
 20
491.0
 30
0.0
 40
1.0
100
AcDbArc
 50
270.0
 51
0.0
  0
LINE
  5
E7
100
AcDbEntity
  8
035-DWG
100
AcDbLine
 10
464.87535
 20
482.6
 30
0.0
 11
464.87535
 21
448.6
 31
0.0
  0
LINE
  5
E8
100
AcDbEntity
  8
025-DWG
100
AcDbLine
 10
456.88128
 20
478.1
 30
0.0
 11
456.88128
 21
453.1
 31
0.0
  0
LINE
  5
E9
100
AcDbEntity
  8
035-DWG
100
AcDbLine
 10
454.268748
 20
482.6
 30
0.0
 11
454.268748
 21
448.6
 31
0.0
  0
LINE
  5
EA
100
AcDbEntity
  8
025-DWG
100
AcDbLine
 10
456.88128
 20
453.1
 30
0.0
 11
462.538135
 21
453.1
 31
0.0
  0
LINE
  5
EB
100
AcDbEntity
  8
035-DWG
100
AcDbLine
 10
454.268748
 20
448.6
 30
0.0
 11
464.87535
 21
448.6
 31
0.0
  0
LINE
  5
EC
100
AcDbEntity
  8
025-DWG
100
AcDbLine
 10
456.88128
 20
478.1
 30
0.0
 11
462.538135
 21
478.1
 31
0.0
  0
LINE
  5
ED
100
AcDbEntity
  8
035-DWG
100
AcDbLine
 10
454.268748
 20
482.6
 30
0.0
 11
464.87535
 21
482.6
 31
0.0
  0
LINE
  5
EE
100
AcDbEntity
  8
VHH-035
100
AcDbLine
 10
424.668257
 20
514.0
 30
0.0
 11
431.0
 21
514.0
 31
0.0
  0
LINE
  5
EF
100
AcDbEntity
  8
VHH-035
100
AcDbLine
 10
423.547992
 20
538.2
 30
0.0
 11
423.830158
 21
538.2
 31
0.0
  0
LINE
  5
F0
100
AcDbEntity
  8
VHH-025
100
AcDbLine
 10
422.314038
 20
538.2
 30
0.0
 11
423.050481
 21
538.2
 31
0.0
  0
LINE
  5
F1
100
AcDbEntity
  8
VHH-025
100
AcDbLine
 10
417.263512
 20
538.2
 30
0.0
 11
418.804944
 21
538.2
 31
0.0
  0
LINE
  5
F2
100
AcDbEntity
  8
VHH-025
100
AcDbLine
 10
420.174398
 20
538.2
 30
0.0
 11
421.350278
 21
538.2
 31
0.0
  0
ARC
  5
F3
100
AcDbEntity
  8
VHH-035
100
AcDbCircle
 10
417.9
 20
508.0
 30
0.0
 40
2.0
100
AcDbArc
 50
90.0
 51
180.0
  0
ARC
  5
F4
100
AcDbEntity
  8
VHH-035
100
AcDbCircle
 10
417.9
 20
494.5
 30
0.0
 40
2.5
100
AcDbArc
 50
143.130102
 51
216.869898
  0
LINE
  5
F5
100
AcDbEntity
  8
VHH-035
100
AcDbLine
 10
415.9
 20
496.0
 30
0.0
 11
415.9
 21
508.0
 31
0.0
  0
ARC
  5
F6
100
AcDbEntity
  8
VHH-035
100
AcDbCircle
 10
423.77241
 20
511.0
 30
0.0
 40
1.0
100
AcDbArc
 50
270.0
 51
2.0
  0
LINE
  5
F7
100
AcDbEntity
  8
VHH-035
100
AcDbLine
 10
423.9
 20
536.0
 30
0.0
 11
424.771801
 21
511.034899
 31
0.0
  0
ARC
  5
F8
100
AcDbEntity
  8
VHH-035
100
AcDbCircle
 10
392.9
 20
587.905661
 30
0.0
 40
30.0
100
AcDbArc
 50
328.997281
 51
1.176883
  0
ARC
  5
F9
100
AcDbEntity
  8
VHH-035
100
AcDbCircle
 10
392.987228
 20
585.573745
 30
0.0
 40
30.0
100
AcDbArc
 50
334.13507
 51
360.0
  0
ARC
  5
FA
100
AcDbEntity
  8
VHH-035
100
AcDbCircle
 10
407.9
 20
520.0
 30
0.0
 40
30.0
100
AcDbArc
 50
42.451325
 51
47.675143
  0
LINE
  5
FB
100
AcDbEntity
  8
VHH-035
100
AcDbLine
 10
428.1
 20
542.180171
 30
0.0
 11
426.392705
 21
540.160356
 31
0.0
  0
ARC
  5
FC
100
AcDbEntity
  8
VHH-035
100
AcDbCircle
 10
429.88796
 20
540.113916
 30
0.0
 40
0.2
100
AcDbArc
 50
2.0
 51
42.451325
  0
ARC
  5
FD
100
AcDbEntity
  8
VHH-035
100
AcDbCircle
 10
422.816049
 20
545.75
 30
0.0
 40
0.75
100
AcDbArc
 50
2.0
 51
90.0
  0
ARC
  5
FE
100
AcDbEntity
  8
VHH-025
100
AcDbCircle
 10
414.453285
 20
545.722576
 30
0.0
 40
0.99449
100
AcDbArc
 50
1.580191
 51
51.419375
  0
ARC
  5
FF
100
AcDbEntity
  8
VHH-025
100
AcDbCircle
 10
417.847063
 20
545.762464
 30
0.0
 40
0.777499
100
AcDbArc
 50
359.081425
 51
71.550057
  0
ARC
  5
100
100
AcDbEntity
  8
VHH-025
100
AcDbCircle
 10
416.304541
 20
545.774683
 30
0.0
 40
0.804379
100
AcDbArc
 50
358.241524
 51
64.383709
  0
ARC
  5
101
100
AcDbEntity
  8
VHH-025
100
AcDbCircle
 10
417.930834
 20
546.321112
 30
0.0
 40
0.180679
100
AcDbArc
 50
353.289662
 51
81.925084
  0
ARC
  5
102
100
AcDbEntity
  8
VHH-025
100
AcDbCircle
 10
414.748497
 20
546.246677
 30
0.0
 40
0.34123
100
AcDbArc
 50
8.9903
 51
47.934725
  0
ARC
  5
103
100
AcDbEntity
  8
VHH-025
100
AcDbCircle
 10
422.456537
 20
545.666262
 30
0.0
 40
0.836674
100
AcDbArc
 50
5.744042
 51
85.198625
  0
ARC
  5
104
100
AcDbEntity
  8
VHH-025
100
AcDbCircle
 10
422.001812
 20
545.702213
 30
0.0
 40
0.799351
100
AcDbArc
 50
3.427341
 51
86.416
  0
ARC
  5
105
100
AcDbEntity
  8
VHH-025
100
AcDbCircle
 10
420.367791
 20
545.74734
 30
0.0
 40
0.759883
100
AcDbArc
 50
0.200603
 51
82.094132
  0
ARC
  5
106
100
AcDbEntity
  8
VHH-025
100
AcDbCircle
 10
421.224862
 20
545.657295
 30
0.0
 40
0.855654
100
AcDbArc
 50
6.219848
 51
80.019292
  0
ARC
  5
107
100
AcDbEntity
  8
VHH-025
100
AcDbCircle
 10
419.148447
 20
545.707334
 30
0.0
 40
0.823909
100
AcDbArc
 50
2.968346
 51
74.170782
  0
ARC
  5
108
100
AcDbEntity
  8
VHH-025
100
AcDbCircle
 10
421.862667
 20
546.286574
 30
0.0
 40
0.213601
100
AcDbArc
 50
3.603663
 51
87.678191
  0
ARC
  5
109
100
AcDbEntity
  8
VHH-025
100
AcDbCircle
 10
420.25097
 20
546.259874
 30
0.0
 40
0.245793
100
AcDbArc
 50
9.395686
 51
77.673169
  0
ARC
  5
10A
100
AcDbEntity
  8
VHH-025
100
AcDbCircle
 10
422.768158
 20
545.732393
 30
0.0
 40
0.767636
100
AcDbArc
 50
1.31429
 51
90.497563
  0
ARC
  5
10B
100
AcDbEntity
  8
VHH-035
100
AcDbCircle
 10
434.9
 20
562.666802
 30
0.0
 40
19.0
100
AcDbArc
 50
148.997281
 51
180.0
  0
ARC
  5
10C
100
AcDbEntity
  8
VHH-035
100
AcDbCircle
 10
420.563209
 20
554.614696
 30
0.0
 40
0.336791
100
AcDbArc
 50
360.0
 51
53.286618
  0
ARC
  5
10D
100
AcDbEntity
  8
VHH-035
100
AcDbCircle
 10
420.563209
 20
554.614696
 30
0.0
 40
0.336791
100
AcDbArc
 50
294.524071
 51
0.0
  0
LINE
  5
10E
100
AcDbEntity
  8
VHH-035
100
AcDbLine
 10
415.4
 20
553.480827
 30
0.0
 11
414.9
 21
553.480827
 31
0.0
  0
ARC
  5
10F
100
AcDbEntity
  8
VHH-035
100
AcDbCircle
 10
415.4
 20
553.980827
 30
0.0
 40
0.5
100
AcDbArc
 50
270.0
 51
0.0
  0
ARC
  5
110
100
AcDbEntity
  8
VHH-035
100
AcDbCircle
 10
416.095721
 20
569.936055
 30
0.0
 40
16.408501
100
AcDbArc
 50
274.475834
 51
280.701451
  0
ARC
  5
111
100
AcDbEntity
  8
VHH-035
100
AcDbCircle
 10
414.9
 20
585.211504
 30
0.0
 40
31.730678
100
AcDbArc
 50
270.0
 51
274.475834
  0
ARC
  5
112
100
AcDbEntity
  8
VHH-035
100
AcDbCircle
 10
417.879493
 20
560.497024
 30
0.0
 40
6.802401
100
AcDbArc
 50
280.701451
 51
294.524071
  0
LINE
  5
113
100
AcDbEntity
  8
VHH-035
100
AcDbLine
 10
420.9
 20
554.614696
 30
0.0
 11
420.9
 21
546.5
 31
0.0
  0
LINE
  5
114
100
AcDbEntity
  8
VHH-035
100
AcDbLine
 10
416.77
 20
553.535977
 30
0.0
 11
416.77
 21
546.5
 31
0.0
  0
ARC
  5
115
100
AcDbEntity
  8
VHH-035
100
AcDbCircle
 10
422.557984
 20
557.289588
 30
0.0
 40
3.0
100
AcDbArc
 50
204.846201
 51
233.286618
  0
LINE
  5
116
100
AcDbEntity
  8
VHH-035
100
AcDbLine
 10
415.9
 20
562.666802
 30
0.0
 11
415.9
 21
553.980827
 31
0.0
  0
LINE
  5
117
100
AcDbEntity
  8
VHH-035
100
AcDbLine
 10
414.9
 20
569.262377
 30
0.0
 11
414.9
 21
548.631237
 31
0.0
  0
ARC
  5
118
100
AcDbEntity
  8
VHH-035
100
AcDbCircle
 10
437.272929
 20
564.103251
 30
0.0
 40
19.215907
100
AcDbArc
 50
154.13507
 51
204.846201
  0
ARC
  5
119
100
AcDbEntity
  8
VHH-035
100
AcDbCircle
 10
410.23358
 20
513.183364
 30
0.0
 40
31.433336
100
AcDbArc
 50
59.082427
 51
64.608727
  0
ARC
  5
11A
100
AcDbEntity
  8
VHH-035
100
AcDbCircle
 10
417.987228
 20
589.448939
 30
0.0
 40
5.0
100
AcDbArc
 50
360.0
 51
67.013184
  0
ARC
  5
11B
100
AcDbEntity
  8
VHH-035
100
AcDbCircle
 10
417.899911
 20
588.272112
 30
0.0
 40
5.0
100
AcDbArc
 50
2.862774
 51
67.223408
  0
LINE
  5
11C
100
AcDbEntity
  8
VHH-035
100
AcDbLine
 10
422.987228
 20
589.448939
 30
0.0
 11
422.987228
 21
585.573745
 31
0.0
  0
LINE
  5
11D
100
AcDbEntity
  8
025-DWG
100
AcDbLine
 10
414.793617
 20
764.840589
 30
0.0
 11
414.793617
 21
659.856904
 31
0.0
  0
LINE
  5
11E
100
AcDbEntity
  8
025-DWG
100
AcDbLine
 10
426.203639
 20
764.215704
 30
0.0
 11
426.203639
 21
661.224764
 31
0.0
  0
LINE
  5
11F
100
AcDbEntity
  8
035-DWG
100
AcDbLine
 10
427.722299
 20
763.377
 30
0.0
 11
427.722299
 21
661.502413
 31
0.0
  0
LINE
  5
120
100
AcDbEntity
  8
035-DWG
100
AcDbLine
 10
511.3
 20
742.299268
 30
0.0
 11
511.3
 21
776.069091
 31
0.0
  0
LINE
  5
121
100
AcDbEntity
  8
035-DWG
100
AcDbLine
 10
517.83557
 20
768.421358
 30
0.0
 11
517.83557
 21
770.703511
 31
0.0
  0
LINE
  5
122
100
AcDbEntity
  8
035-DWG
100
AcDbLine
 10
513.9
 20
765.632507
 30
0.0
 11
513.9
 21
772.41512
 31
0.0
  0
LINE
  5
123
100
AcDbEntity
  8
035-DWG
100
AcDbLine
 10
516.4
 20
764.582006
 30
0.0
 11
516.4
 21
772.41512
 31
0.0
  0
LINE
  5
124
100
AcDbEntity
  8
035-DWG
100
AcDbLine
 10
516.4
 20
768.421358
 30
0.0
 11
517.83557
 21
768.421358
 31
0.0
  0
LINE
  5
125
100
AcDbEntity
  8
035-DWG
100
AcDbLine
 10
511.3
 20
768.421358
 30
0.0
 11
513.9
 21
768.421358
 31
0.0
  0
LINE
  5
126
100
AcDbEntity
  8
035-DWG
100
AcDbLine
 10
513.9
 20
766.403162
 30
0.0
 11
516.4
 21
766.403162
 31
0.0
  0
ARC
  5
127
100
AcDbEntity
  8
035-DWG
100
AcDbCircle
 10
519.9
 20
764.582006
 30
0.0
 40
3.5
100
AcDbArc
 50
180.0
 51
270.0
  0
ARC
  5
128
100
AcDbEntity
  8
035-DWG
100
AcDbCircle
 10
506.2
 20
793.069091
 30
0.0
 40
2.0
100
AcDbArc
 50
270.0
 51
360.0
  0
ARC
  5
129
100
AcDbEntity
  8
035-DWG
100
AcDbCircle
 10
501.75
 20
792.369091
 30
0.0
 40
2.8
100
AcDbArc
 50
207.664004
 51
332.335996
  0
LINE
  5
12A
100
AcDbEntity
  8
035-DWG
100
AcDbLine
 10
516.4
 20
770.703511
 30
0.0
 11
517.83557
 21
770.703511
 31
0.0
  0
LINE
  5
12B
100
AcDbEntity
  8
035-DWG
100
AcDbLine
 10
511.3
 20
770.703511
 30
0.0
 11
513.9
 21
770.703511
 31
0.0
  0
LINE
  5
12C
100
AcDbEntity
  8
035-DWG
100
AcDbLine
 10
513.9
 20
772.41512
 30
0.0
 11
516.4
 21
772.41512
 31
0.0
  0
LINE
  5
12D
100
AcDbEntity
  8
035-DWG
100
AcDbLine
 10
512.7
 20
786.069091
 30
0.0
 11
512.7
 21
776.069091
 31
0.0
  0
POINT
  5
12E
100
AcDbEntity
  8
DEFPOINTS
  6
BYBLOCK
 62
     0
100
AcDbPoint
 10
509.2
 20
789.569091
 30
0.0
  0
ARC
  5
12F
100
AcDbEntity
  8
035-DWG
100
AcDbCircle
 10
509.2
 20
786.069091
 30
0.0
 40
3.5
100
AcDbArc
 50
0.0
 51
90.0
  0
LINE
  5
130
100
AcDbEntity
  8
035-DWG
100
AcDbLine
 10
434.156369
 20
909.363686
 30
0.0
 11
407.9
 21
909.363686
 31
0.0
  0
LINE
  5
131
100
AcDbEntity
  8
035-DWG
100
AcDbLine
 10
434.488675
 20
917.363305
 30
0.0
 11
407.9
 21
917.363305
 31
0.0
  0
LINE
  5
132
100
AcDbEntity
  8
025-DWG
100
AcDbLine
 10
432.034936
 20
913.113305
 30
0.0
 11
407.9
 21
913.113305
 31
0.0
  0
LINE
  5
133
100
AcDbEntity
  8
035-DWG
100
AcDbLine
 10
515.75
 20
900.269091
 30
0.0
 11
407.9
 21
900.269091
 31
0.0
  0
LINE
  5
134
100
AcDbEntity
  8
035-DWG
100
AcDbLine
 10
517.55
 20
893.469091
 30
0.0
 11
407.9
 21
893.469091
 31
0.0
  0
LINE
  5
135
100
AcDbEntity
  8
025-DWG
100
AcDbLine
 10
517.55
 20
898.469091
 30
0.0
 11
407.9
 21
898.469091
 31
0.0
  0
LINE
  5
136
100
AcDbEntity
  8
025-DWG
100
AcDbLine
 10
508.2
 20
874.970653
 30
0.0
 11
407.9
 21
874.970653
 31
0.0
  0
LINE
  5
137
100
AcDbEntity
  8
025-DWG
100
AcDbLine
 10
508.2
 20
879.970653
 30
0.0
 11
407.9
 21
879.970653
 31
0.0
  0
LINE
  5
138
100
AcDbEntity
  8
035-DWG
100
AcDbLine
 10
321.767854
 20
900.269091
 30
0.0
 11
252.121681
 21
932.745635
 31
0.0
  0
LINE
  5
139
100
AcDbEntity
  8
035-DWG
100
AcDbLine
 10
317.508691
 20
900.269091
 30
0.0
 11
251.360968
 21
931.114281
 31
0.0
  0
LINE
  5
13A
100
AcDbEntity
  8
035-DWG
100
AcDbLine
 10
252.121681
 20
932.745635
 30
0.0
 11
251.360968
 21
931.114281
 31
0.0
  0
ARC
  5
13B
100
AcDbEntity
  8
035-DWG
100
AcDbCircle
 10
381.6
 20
911.863305
 30
0.0
 40
2.5
100
AcDbArc
 50
271.0
 51
30.0
  0
LINE
  5
13C
100
AcDbEntity
  8
025-DWG
100
AcDbLine
 10
307.6
 20
879.970653
 30
0.0
 11
407.9
 21
879.970653
 31
0.0
  0
LINE
  5
13D
100
AcDbEntity
  8
025-DWG
100
AcDbLine
 10
307.6
 20
874.970653
 30
0.0
 11
407.9
 21
874.970653
 31
0.0
  0
LINE
  5
13E
100
AcDbEntity
  8
035-DWG
100
AcDbLine
 10
300.05
 20
900.269091
 30
0.0
 11
407.9
 21
900.269091
 31
0.0
  0
LINE
  5
13F
100
AcDbEntity
  8
035-DWG
100
AcDbLine
 10
298.25
 20
893.469091
 30
0.0
 11
407.9
 21
893.469091
 31
0.0
  0
LINE
  5
140
100
AcDbEntity
  8
025-DWG
100
AcDbLine
 10
298.25
 20
898.469091
 30
0.0
 11
407.9
 21
898.469091
 31
0.0
  0
LINE
  5
141
100
AcDbEntity
  8
035-DWG
100
AcDbLine
 10
333.436896
 20
907.859034
 30
0.0
 11
381.643631
 21
909.363686
 31
0.0
  0
LINE
  5
142
100
AcDbEntity
  8
035-DWG
100
AcDbLine
 10
329.884756
 20
906.852479
 30
0.0
 11
323.301369
 21
900.269091
 31
0.0
  0
LINE
  5
143
100
AcDbEntity
  8
035-DWG
100
AcDbLine
 10
329.884756
 20
906.852479
 30
0.0
 11
331.157548
 21
905.579686
 31
0.0
  0
LINE
  5
144
100
AcDbEntity
  8
035-DWG
100
AcDbLine
 10
331.157548
 20
905.579686
 30
0.0
 11
325.846953
 21
900.269091
 31
0.0
  0
LINE
  5
145
100
AcDbEntity
  8
035-DWG
100
AcDbLine
 10
298.25
 20
893.469091
 30
0.0
 11
298.25
 21
898.469091
 31
0.0
  0
ARC
  5
146
100
AcDbEntity
  8
035-DWG
100
AcDbCircle
 10
300.05
 20
898.469091
 30
0.0
 40
1.8
100
AcDbArc
 50
90.0
 51
180.0
  0
LINE
  5
147
100
AcDbEntity
  8
035-DWG
100
AcDbLine
 10
307.6
 20
893.469091
 30
0.0
 11
307.6
 21
879.970653
 31
0.0
  0
ARC
  5
148
100
AcDbEntity
  8
035-DWG
100
AcDbCircle
 10
307.6
 20
877.470653
 30
0.0
 40
2.5
100
AcDbArc
 50
270.0
 51
90.0
  0
LINE
  5
149
100
AcDbEntity
  8
035-DWG
100
AcDbLine
 10
325.846953
 20
900.269091
 30
0.0
 11
333.436896
 21
907.859034
 31
0.0
  0
LINE
  5
14A
100
AcDbEntity
  8
035-DWG
100
AcDbLine
 10
381.643631
 20
909.363686
 30
0.0
 11
407.9
 21
909.363686
 31
0.0
  0
LINE
  5
14B
100
AcDbEntity
  8
035-DWG
100
AcDbLine
 10
381.311325
 20
917.363305
 30
0.0
 11
407.9
 21
917.363305
 31
0.0
  0
LINE
  5
14C
100
AcDbEntity
  8
025-DWG
100
AcDbLine
 10
383.765064
 20
913.113305
 30
0.0
 11
407.9
 21
913.113305
 31
0.0
  0
LINE
  5
14D
100
AcDbEntity
  8
035-DWG
100
AcDbLine
 10
383.765064
 20
913.113305
 30
0.0
 11
381.311325
 21
917.363305
 31
0.0
  0
ARC
  5
14E
100
AcDbEntity
  8
035-DWG
100
AcDbCircle
 10
434.2
 20
911.863305
 30
0.0
 40
2.5
100
AcDbArc
 50
150.0
 51
269.0
  0
LINE
  5
14F
100
AcDbEntity
  8
035-DWG
100
AcDbLine
 10
482.363104
 20
907.859034
 30
0.0
 11
434.156369
 21
909.363686
 31
0.0
  0
LINE
  5
150
100
AcDbEntity
  8
035-DWG
100
AcDbLine
 10
484.642452
 20
905.579686
 30
0.0
 11
489.953047
 21
900.269091
 31
0.0
  0
LINE
  5
151
100
AcDbEntity
  8
035-DWG
100
AcDbLine
 10
489.953047
 20
900.269091
 30
0.0
 11
482.363104
 21
907.859034
 31
0.0
  0
LINE
  5
152
100
AcDbEntity
  8
035-DWG
100
AcDbLine
 10
517.55
 20
893.469091
 30
0.0
 11
517.55
 21
898.469091
 31
0.0
  0
ARC
  5
153
100
AcDbEntity
  8
035-DWG
100
AcDbCircle
 10
515.75
 20
898.469091
 30
0.0
 40
1.8
100
AcDbArc
 50
360.0
 51
90.0
  0
ARC
  5
154
100
AcDbEntity
  8
035-DWG
100
AcDbCircle
 10
508.2
 20
877.470653
 30
0.0
 40
2.5
100
AcDbArc
 50
90.0
 51
270.0
  0
LINE
  5
155
100
AcDbEntity
  8
035-DWG
100
AcDbLine
 10
508.2
 20
893.469091
 30
0.0
 11
508.2
 21
879.970653
 31
0.0
  0
LINE
  5
156
100
AcDbEntity
  8
035-DWG
100
AcDbLine
 10
432.034936
 20
913.113305
 30
0.0
 11
434.488675
 21
917.363305
 31
0.0
  0
LINE
  5
157
100
AcDbEntity
  8
035-DWG
100
AcDbLine
 10
426.82817
 20
775.1
 30
0.421745
 11
388.97183
 21
775.1
 31
0.421745
  0
LINE
  5
158
100
AcDbEntity
  8
025-DWG
100
AcDbLine
 10
388.215744
 20
774.126177
 30
0.421745
 11
427.584256
 21
774.126177
 31
0.421745
  0
LWPOLYLINE
  5
159
100
AcDbEntity
  8
025-DWG
100
AcDbPolyline
 90
        9
 70
     0
 43
0.0
 38
0.421745
 10
427.778738
 20
764.306612
 10
423.661252
 20
764.641519
 10
418.824753
 20
764.892285
 10
413.489879
 20
765.047472
 10
407.9
 20
765.1
 10
402.310121
 20
765.047472
 10
396.975247
 20
764.892285
 10
392.138748
 20
764.641519
 10
388.021262
 20
764.306612
  0
LWPOLYLINE
  5
15A
100
AcDbEntity
  8
035-DWG
100
AcDbPolyline
 90
        9
 70
     0
 43
0.0
 38
0.421745
 10
426.383758
 20
764.201053
 10
422.555214
 20
764.512458
 10
418.058114
 20
764.745628
 10
413.097612
 20
764.889924
 10
407.9
 20
764.938766
 10
402.702388
 20
764.889924
 10
397.741886
 20
764.745628
 10
393.244786
 20
764.512458
 10
389.416242
 20
764.201053
  0
LWPOLYLINE
  5
15B
100
AcDbEntity
  8
025-DWG
100
AcDbPolyline
 90
        2
 70
     0
 43
1.0
 38
0.421745
 10
396.827701
 20
630.426177
 10
399.827701
 20
630.426177
  0
LWPOLYLINE
  5
15C
100
AcDbEntity
  8
025-DWG
100
AcDbPolyline
 90
        2
 70
     0
 43
1.0
 38
0.421745
 10
396.827701
 20
671.226177
 10
399.827701
 20
671.226177
  0
LWPOLYLINE
  5
15D
100
AcDbEntity
  8
025-DWG
100
AcDbPolyline
 90
        2
 70
     0
 43
1.0
 38
0.421745
 10
396.827701
 20
712.026177
 10
399.827701
 20
712.026177
  0
LINE
  5
15E
100
AcDbEntity
  8
025-DWG
100
AcDbLine
 10
386.364101
 20
773.141421
 30
0.421745
 11
386.117642
 21
763.658853
 31
0.421745
  0
LINE
  5
15F
100
AcDbEntity
  8
025-DWG
100
AcDbLine
 10
386.485971
 20
773.141421
 30
0.421745
 11
386.241768
 21
763.745665
 31
0.421745
  0
LINE
  5
160
100
AcDbEntity
  8
025-DWG
100
AcDbLine
 10
386.60784
 20
773.141421
 30
0.421745
 11
386.365894
 21
763.832477
 31
0.421745
  0
LINE
  5
161
100
AcDbEntity
  8
025-DWG
100
AcDbLine
 10
386.729709
 20
773.141421
 30
0.421745
 11
386.490019
 21
763.91929
 31
0.421745
  0
LINE
  5
162
100
AcDbEntity
  8
025-DWG
100
AcDbLine
 10
386.851579
 20
773.141421
 30
0.421745
 11
386.614145
 21
764.006102
 31
0.421745
  0
LINE
  5
163
100
AcDbEntity
  8
025-DWG
100
AcDbLine
 10
386.973448
 20
773.141421
 30
0.421745
 11
386.738271
 21
764.092914
 31
0.421745
  0
LINE
  5
164
100
AcDbEntity
  8
025-DWG
100
AcDbLine
 10
386.242232
 20
773.141421
 30
0.421745
 11
385.993517
 21
763.572041
 31
0.421745
  0
LINE
  5
165
100
AcDbEntity
  8
025-DWG
100
AcDbLine
 10
386.120362
 20
773.141421
 30
0.421745
 11
385.869391
 21
763.485228
 31
0.421745
  0
LINE
  5
166
100
AcDbEntity
  8
025-DWG
100
AcDbLine
 10
385.998493
 20
773.141421
 30
0.421745
 11
385.745265
 21
763.398416
 31
0.421745
  0
LINE
  5
167
100
AcDbEntity
  8
025-DWG
100
AcDbLine
 10
385.876624
 20
773.141421
 30
0.421745
 11
385.62114
 21
763.311604
 31
0.421745
  0
LINE
  5
168
100
AcDbEntity
  8
025-DWG
100
AcDbLine
 10
385.754754
 20
773.141421
 30
0.421745
 11
385.497014
 21
763.224791
 31
0.421745
  0
LINE
  5
169
100
AcDbEntity
  8
025-DWG
100
AcDbLine
 10
385.632885
 20
773.141421
 30
0.421745
 11
385.372888
 21
763.137979
 31
0.421745
  0
LINE
  5
16A
100
AcDbEntity
  8
035-DWG
100
AcDbLine
 10
385.511016
 20
773.141421
 30
0.421745
 11
385.248763
 21
763.051167
 31
0.421745
  0
LINE
  5
16B
100
AcDbEntity
  8
025-DWG
100
AcDbLine
 10
387.619218
 20
774.126177
 30
0.421745
 11
387.360633
 21
764.177059
 31
0.421745
  0
LINE
  5
16C
100
AcDbEntity
  8
025-DWG
100
AcDbLine
 10
387.276948
 20
764.118531
 30
0.421745
 11
387.524063
 21
773.626348
 31
0.421745
  0
LINE
  5
16D
100
AcDbEntity
  8
025-DWG
100
AcDbLine
 10
387.193358
 20
773.319989
 30
0.421745
 11
386.954102
 21
764.114566
 31
0.421745
  0
LINE
  5
16E
100
AcDbEntity
  8
025-DWG
100
AcDbLine
 10
388.215744
 20
774.126177
 30
0.421745
 11
388.021262
 21
764.306612
 31
0.421745
  0
LINE
  5
16F
100
AcDbEntity
  8
035-DWG
100
AcDbLine
 10
389.193488
 20
764.15737
 30
0.421745
 11
387.525638
 21
762.990892
 31
0.421745
  0
LINE
  5
170
100
AcDbEntity
  8
025-DWG
100
AcDbLine
 10
385.706558
 20
763.020215
 30
0.421745
 11
385.701398
 21
763.016606
 31
0.421745
  0
LINE
  5
171
100
AcDbEntity
  8
035-DWG
100
AcDbLine
 10
385.404646
 20
763.030891
 30
0.421745
 11
385.706558
 21
763.020215
 31
0.421745
  0
LINE
  5
172
100
AcDbEntity
  8
025-DWG
100
AcDbLine
 10
385.531042
 20
763.117625
 30
0.421745
 11
385.529878
 21
763.072868
 31
0.421745
  0
LINE
  5
173
100
AcDbEntity
  8
025-DWG
100
AcDbLine
 10
385.655167
 20
763.204437
 30
0.421745
 11
385.654004
 21
763.15968
 31
0.421745
  0
LINE
  5
174
100
AcDbEntity
  8
025-DWG
100
AcDbLine
 10
385.779293
 20
763.291249
 30
0.421745
 11
385.77813
 21
763.246493
 31
0.421745
  0
LINE
  5
175
100
AcDbEntity
  8
025-DWG
100
AcDbLine
 10
385.903419
 20
763.378061
 30
0.421745
 11
385.902255
 21
763.333305
 31
0.421745
  0
LINE
  5
176
100
AcDbEntity
  8
025-DWG
100
AcDbLine
 10
387.276948
 20
764.118531
 30
0.421745
 11
386.954102
 21
764.114566
 31
0.421745
  0
LINE
  5
177
100
AcDbEntity
  8
025-DWG
100
AcDbLine
 10
387.360633
 20
764.177059
 30
0.421745
 11
387.276948
 21
764.118531
 31
0.421745
  0
LINE
  5
178
100
AcDbEntity
  8
025-DWG
100
AcDbLine
 10
386.027544
 20
763.464874
 30
0.421745
 11
386.026381
 21
763.420117
 31
0.421745
  0
LINE
  5
179
100
AcDbEntity
  8
025-DWG
100
AcDbLine
 10
386.15167
 20
763.551686
 30
0.421745
 11
386.150507
 21
763.50693
 31
0.421745
  0
LINE
  5
17A
100
AcDbEntity
  8
025-DWG
100
AcDbLine
 10
386.275796
 20
763.638498
 30
0.421745
 11
386.274632
 21
763.593742
 31
0.421745
  0
LINE
  5
17B
100
AcDbEntity
  8
025-DWG
100
AcDbLine
 10
386.896424
 20
764.07256
 30
0.421745
 11
386.895261
 21
764.027803
 31
0.421745
  0
LINE
  5
17C
100
AcDbEntity
  8
025-DWG
100
AcDbLine
 10
386.772298
 20
763.985747
 30
0.421745
 11
386.771135
 21
763.940991
 31
0.421745
  0
LINE
  5
17D
100
AcDbEntity
  8
025-DWG
100
AcDbLine
 10
386.648173
 20
763.898935
 30
0.421745
 11
386.647009
 21
763.854179
 31
0.421745
  0
LINE
  5
17E
100
AcDbEntity
  8
025-DWG
100
AcDbLine
 10
386.524047
 20
763.812123
 30
0.421745
 11
386.522884
 21
763.767366
 31
0.421745
  0
LINE
  5
17F
100
AcDbEntity
  8
025-DWG
100
AcDbLine
 10
386.399921
 20
763.725311
 30
0.421745
 11
386.398758
 21
763.680554
 31
0.421745
  0
LWPOLYLINE
  5
180
100
AcDbEntity
  8
025-DWG
100
AcDbPolyline
 90
        6
 70
     0
 43
0.0
 38
0.421745
 10
386.150507
 20
763.50693
 10
385.99872
 20
763.504351
 10
385.893058
 20
763.494468
 10
385.873879
 20
763.481055
 10
385.94851
 20
763.469235
 10
386.088444
 20
763.463523
  0
LWPOLYLINE
  5
181
100
AcDbEntity
  8
025-DWG
100
AcDbPolyline
 90
        6
 70
     0
 43
0.0
 38
0.421745
 10
386.026381
 20
763.420117
 10
385.874594
 20
763.417539
 10
385.768932
 20
763.407656
 10
385.749754
 20
763.394243
 10
385.824384
 20
763.382423
 10
385.964318
 20
763.376711
  0
LWPOLYLINE
  5
182
100
AcDbEntity
  8
025-DWG
100
AcDbPolyline
 90
        6
 70
     0
 43
0.0
 38
0.421745
 10
385.964318
 20
763.376711
 10
386.104252
 20
763.370999
 10
386.178883
 20
763.359179
 10
386.159704
 20
763.345766
 10
386.054042
 20
763.335883
 10
385.902255
 20
763.333305
  0
LWPOLYLINE
  5
183
100
AcDbEntity
  8
025-DWG
100
AcDbPolyline
 90
        7
 70
     0
 43
0.0
 38
0.421745
 10
385.840193
 20
763.289899
 10
385.960111
 20
763.285658
 10
386.039583
 20
763.276739
 10
386.057313
 20
763.26553
 10
386.008552
 20
763.255036
 10
385.906363
 20
763.248067
 10
385.77813
 20
763.246493
  0
LWPOLYLINE
  5
184
100
AcDbEntity
  8
035-DWG
100
AcDbPolyline
 90
        6
 70
     0
 43
0.0
 38
0.421745
 10
385.701398
 20
763.016606
 10
385.715204
 20
762.999641
 10
385.801624
 20
762.984466
 10
385.947001
 20
762.973353
 10
386.119216
 20
762.968038
 10
386.301908
 20
762.968497
  0
LWPOLYLINE
  5
185
100
AcDbEntity
  8
025-DWG
100
AcDbPolyline
 90
        6
 70
     0
 43
0.0
 38
0.421745
 10
386.954102
 20
764.114566
 10
386.824706
 20
764.109416
 10
386.748112
 20
764.098941
 10
386.749035
 20
764.08652
 10
386.827176
 20
764.076163
 10
386.957324
 20
764.071209
  0
LWPOLYLINE
  5
186
100
AcDbEntity
  8
025-DWG
100
AcDbPolyline
 90
        7
 70
     0
 43
0.0
 38
0.421745
 10
386.957324
 20
764.071209
 10
387.077242
 20
764.066969
 10
387.156714
 20
764.058049
 10
387.174444
 20
764.046841
 10
387.125683
 20
764.036346
 10
387.023494
 20
764.029378
 10
386.895261
 20
764.027803
  0
LWPOLYLINE
  5
187
100
AcDbEntity
  8
025-DWG
100
AcDbPolyline
 90
        6
 70
     0
 43
0.0
 38
0.421745
 10
386.895261
 20
764.027803
 10
386.743474
 20
764.025225
 10
386.637812
 20
764.015342
 10
386.618633
 20
764.001929
 10
386.693264
 20
763.990109
 10
386.833198
 20
763.984397
  0
LWPOLYLINE
  5
188
100
AcDbEntity
  8
025-DWG
100
AcDbPolyline
 90
        6
 70
     0
 43
0.0
 38
0.421745
 10
386.833198
 20
763.984397
 10
386.973132
 20
763.978685
 10
387.047763
 20
763.966865
 10
387.028584
 20
763.953452
 10
386.922922
 20
763.943569
 10
386.771135
 20
763.940991
  0
LWPOLYLINE
  5
189
100
AcDbEntity
  8
025-DWG
100
AcDbPolyline
 90
        6
 70
     0
 43
0.0
 38
0.421745
 10
386.771135
 20
763.940991
 10
386.619348
 20
763.938413
 10
386.513686
 20
763.92853
 10
386.494508
 20
763.915117
 10
386.569138
 20
763.903297
 10
386.709072
 20
763.897585
  0
LWPOLYLINE
  5
18A
100
AcDbEntity
  8
025-DWG
100
AcDbPolyline
 90
        7
 70
     0
 43
0.0
 38
0.421745
 10
386.709072
 20
763.897585
 10
386.828991
 20
763.893344
 10
386.908463
 20
763.884425
 10
386.926193
 20
763.873216
 10
386.877431
 20
763.862722
 10
386.775243
 20
763.855754
 10
386.647009
 20
763.854179
  0
LWPOLYLINE
  5
18B
100
AcDbEntity
  8
025-DWG
100
AcDbPolyline
 90
        7
 70
     0
 43
0.0
 38
0.421745
 10
386.647009
 20
763.854179
 10
386.518776
 20
763.852604
 10
386.416587
 20
763.845636
 10
386.367826
 20
763.835141
 10
386.385556
 20
763.823933
 10
386.465028
 20
763.815013
 10
386.584947
 20
763.810773
  0
LWPOLYLINE
  5
18C
100
AcDbEntity
  8
025-DWG
100
AcDbPolyline
 90
        6
 70
     0
 43
0.0
 38
0.421745
 10
386.584947
 20
763.810773
 10
386.72488
 20
763.805061
 10
386.799511
 20
763.793241
 10
386.780333
 20
763.779828
 10
386.67467
 20
763.769944
 10
386.522884
 20
763.767366
  0
LWPOLYLINE
  5
18D
100
AcDbEntity
  8
025-DWG
100
AcDbPolyline
 90
        6
 70
     0
 43
0.0
 38
0.421745
 10
386.522884
 20
763.767366
 10
386.371097
 20
763.764788
 10
386.265435
 20
763.754905
 10
386.246256
 20
763.741492
 10
386.320887
 20
763.729672
 10
386.460821
 20
763.72396
  0
LWPOLYLINE
  5
18E
100
AcDbEntity
  8
025-DWG
100
AcDbPolyline
 90
        6
 70
     0
 43
0.0
 38
0.421745
 10
386.460821
 20
763.72396
 10
386.600755
 20
763.718248
 10
386.675386
 20
763.706429
 10
386.656207
 20
763.693015
 10
386.550545
 20
763.683132
 10
386.398758
 20
763.680554
  0
LWPOLYLINE
  5
18F
100
AcDbEntity
  8
025-DWG
100
AcDbPolyline
 90
        6
 70
     0
 43
0.0
 38
0.421745
 10
386.398758
 20
763.680554
 10
386.246971
 20
763.677976
 10
386.141309
 20
763.668093
 10
386.122131
 20
763.65468
 10
386.196761
 20
763.64286
 10
386.336695
 20
763.637148
  0
LWPOLYLINE
  5
190
100
AcDbEntity
  8
025-DWG
100
AcDbPolyline
 90
        6
 70
     0
 43
0.0
 38
0.421745
 10
386.336695
 20
763.637148
 10
386.476629
 20
763.631436
 10
386.55126
 20
763.619616
 10
386.532081
 20
763.606203
 10
386.426419
 20
763.59632
 10
386.274632
 20
763.593742
  0
LWPOLYLINE
  5
191
100
AcDbEntity
  8
025-DWG
100
AcDbPolyline
 90
        7
 70
     0
 43
0.0
 38
0.421745
 10
386.274632
 20
763.593742
 10
386.146399
 20
763.592167
 10
386.04421
 20
763.585199
 10
385.995449
 20
763.574704
 10
386.013179
 20
763.563496
 10
386.092651
 20
763.554576
 10
386.21257
 20
763.550336
  0
LWPOLYLINE
  5
192
100
AcDbEntity
  8
025-DWG
100
AcDbPolyline
 90
        6
 70
     0
 43
0.0
 38
0.421745
 10
386.21257
 20
763.550336
 10
386.352503
 20
763.544624
 10
386.427134
 20
763.532804
 10
386.407956
 20
763.519391
 10
386.302293
 20
763.509508
 10
386.150507
 20
763.50693
  0
LWPOLYLINE
  5
193
100
AcDbEntity
  8
025-DWG
100
AcDbPolyline
 90
        6
 70
     0
 43
0.0
 38
0.421745
 10
386.088444
 20
763.463523
 10
386.228378
 20
763.457812
 10
386.303009
 20
763.445992
 10
386.28383
 20
763.432578
 10
386.178168
 20
763.422695
 10
386.026381
 20
763.420117
  0
LWPOLYLINE
  5
194
100
AcDbEntity
  8
035-DWG
100
AcDbPolyline
 90
        3
 70
     0
 43
0.0
 38
0.421745
 10
387.525638
 20
762.990892
 10
386.913383
 20
762.979858
 10
386.301908
 20
762.968497
  0
LWPOLYLINE
  5
195
100
AcDbEntity
  8
025-DWG
100
AcDbPolyline
 90
        7
 70
     0
 43
0.0
 38
0.421745
 10
385.902255
 20
763.333305
 10
385.774022
 20
763.33173
 10
385.671834
 20
763.324762
 10
385.623072
 20
763.314268
 10
385.640802
 20
763.303059
 10
385.720274
 20
763.294139
 10
385.840193
 20
763.289899
  0
LWPOLYLINE
  5
196
100
AcDbEntity
  8
025-DWG
100
AcDbPolyline
 90
        6
 70
     0
 43
0.0
 38
0.421745
 10
385.77813
 20
763.246493
 10
385.626343
 20
763.243915
 10
385.520681
 20
763.234031
 10
385.501502
 20
763.220618
 10
385.576133
 20
763.208798
 10
385.716067
 20
763.203086
  0
LWPOLYLINE
  5
197
100
AcDbEntity
  8
025-DWG
100
AcDbPolyline
 90
        6
 70
     0
 43
0.0
 38
0.421745
 10
385.716067
 20
763.203086
 10
385.856001
 20
763.197375
 10
385.930632
 20
763.185555
 10
385.911453
 20
763.172142
 10
385.805791
 20
763.162258
 10
385.654004
 20
763.15968
  0
LWPOLYLINE
  5
198
100
AcDbEntity
  8
025-DWG
100
AcDbPolyline
 90
        7
 70
     0
 43
0.0
 38
0.421745
 10
385.654004
 20
763.15968
 10
385.525771
 20
763.158106
 10
385.423582
 20
763.151137
 10
385.37482
 20
763.140643
 10
385.392551
 20
763.129434
 10
385.472023
 20
763.120515
 10
385.591941
 20
763.116274
  0
LWPOLYLINE
  5
199
100
AcDbEntity
  8
025-DWG
100
AcDbPolyline
 90
        6
 70
     0
 43
0.0
 38
0.421745
 10
385.591941
 20
763.116274
 10
385.731875
 20
763.110562
 10
385.806506
 20
763.098742
 10
385.787328
 20
763.085329
 10
385.681665
 20
763.075446
 10
385.529878
 20
763.072868
  0
LWPOLYLINE
  5
19A
100
AcDbEntity
  8
035-DWG
100
AcDbPolyline
 90
        6
 70
     0
 43
0.0
 38
0.421745
 10
385.529878
 20
763.072868
 10
385.389719
 20
763.070819
 10
385.28477
 20
763.062428
 10
385.248896
 20
763.050403
 10
385.29367
 20
763.038624
 10
385.404646
 20
763.030891
  0
LWPOLYLINE
  5
19B
100
AcDbEntity
  8
025-DWG
100
AcDbPolyline
 90
        3
 70
     0
 43
0.0
 38
0.421745
 10
385.701501
 20
763.020394
 10
385.701449
 20
763.0185
 10
385.701398
 20
763.016606
  0
LWPOLYLINE
  5
19C
100
AcDbEntity
  8
025-DWG
100
AcDbPolyline
 90
        2
 70
     0
 43
0.0
 38
0.421745
 10
385.697528
 20
763.011274
 10
385.697778
 20
763.020526
  0
LWPOLYLINE
  5
19D
100
AcDbEntity
  8
035-DWG
100
AcDbPolyline
 90
        3
 70
     0
 43
0.0
 38
0.421745
 10
389.416242
 20
764.201053
 10
389.267748
 20
764.18066
 10
389.193488
 20
764.15737
  0
LWPOLYLINE
  5
19E
100
AcDbEntity
  8
025-DWG
100
AcDbPolyline
 90
        3
 70
     0
 43
0.0
 38
0.421745
 10
388.021262
 20
764.306612
 10
387.58087
 20
764.246132
 10
387.360633
 20
764.177059
  0
LWPOLYLINE
  5
19F
100
AcDbEntity
  8
025-DWG
100
AcDbPolyline
 90
        2
 70
     0
 43
1.0
 38
0.421745
 10
396.827701
 20
752.826177
 10
399.827701
 20
752.826177
  0
POLYLINE
  5
1A0
100
AcDbEntity
  8
035-DWG
100
AcDb2dPolyline
 66
     1
 10
0.0
 20
0.0
 30
0.421745
 70
     2
  0
VERTEX
  5
1A1
100
AcDbEntity
  8
035-DWG
100
AcDbVertex
100
AcDb2dVertex
 10
387.015402
 20
775.1
 30
0.421745
 42
0.020876
  0
VERTEX
  5
1A2
100
AcDbEntity
  8
035-DWG
100
AcDbVertex
100
AcDb2dVertex
 10
386.906721
 20
775.095492
 30
0.421745
 42
0.036607
 70
     1
  0
VERTEX
  5
1A3
100
AcDbEntity
  8
035-DWG
100
AcDbVertex
100
AcDb2dVertex
 10
386.845391
 20
775.085822
 30
0.421745
 42
0.048734
  0
VERTEX
  5
1A4
100
AcDbEntity
  8
035-DWG
100
AcDbVertex
100
AcDb2dVertex
 10
386.559676
 20
774.988927
 30
0.421745
 42
0.066082
 70
     1
  0
VERTEX
  5
1A5
100
AcDbEntity
  8
035-DWG
100
AcDbVertex
100
AcDb2dVertex
 10
386.370355
 20
774.8712
 30
0.421745
 42
0.046377
  0
VERTEX
  5
1A6
100
AcDbEntity
  8
035-DWG
100
AcDbVertex
100
AcDb2dVertex
 10
386.218117
 20
774.720301
 30
0.421745
 42
0.05931
 70
     1
  0
VERTEX
  5
1A7
100
AcDbEntity
  8
035-DWG
100
AcDbVertex
100
AcDb2dVertex
 10
386.126326
 20
774.579784
 30
0.421745
 42
0.023295
  0
VERTEX
  5
1A8
100
AcDbEntity
  8
035-DWG
100
AcDbVertex
100
AcDb2dVertex
 10
386.077182
 20
774.467812
 30
0.421745
 42
0.018578
 70
     1
  0
VERTEX
  5
1A9
100
AcDbEntity
  8
035-DWG
100
AcDbVertex
100
AcDb2dVertex
 10
386.027529
 20
774.322778
 30
0.421745
 42
0.041424
  0
VERTEX
  5
1AA
100
AcDbEntity
  8
035-DWG
100
AcDbVertex
100
AcDb2dVertex
 10
386.01191
 20
774.249462
 30
0.421745
 42
0.025085
 70
     1
  0
VERTEX
  5
1AB
100
AcDbEntity
  8
035-DWG
100
AcDbVertex
100
AcDb2dVertex
 10
386.002405
 20
774.126177
 30
0.421745
  0
SEQEND
  5
1AC
100
AcDbEntity
  8
035-DWG
  0
LINE
  5
1AD
100
AcDbEntity
  8
025-DWG
100
AcDbLine
 10
387.619218
 20
774.126177
 30
0.421745
 11
388.215744
 21
774.126177
 31
0.421745
  0
LINE
  5
1AE
100
AcDbEntity
  8
035-DWG
100
AcDbLine
 10
385.985252
 20
773.629343
 30
0.421745
 11
385.672068
 21
773.319989
 31
0.421745
  0
LINE
  5
1AF
100
AcDbEntity
  8
025-DWG
100
AcDbLine
 10
385.797846
 20
773.382978
 30
0.421745
 11
385.796268
 21
773.322291
 31
0.421745
  0
LINE
  5
1B0
100
AcDbEntity
  8
025-DWG
100
AcDbLine
 10
385.919715
 20
773.382978
 30
0.421745
 11
385.918138
 21
773.322291
 31
0.421745
  0
LINE
  5
1B1
100
AcDbEntity
  8
025-DWG
100
AcDbLine
 10
387.619218
 20
774.126177
 30
0.421745
 11
386.002405
 21
774.126177
 31
0.421745
  0
LINE
  5
1B2
100
AcDbEntity
  8
025-DWG
100
AcDbLine
 10
387.524063
 20
773.626348
 30
0.421745
 11
387.423423
 21
773.626348
 31
0.421745
  0
LINE
  5
1B3
100
AcDbEntity
  8
025-DWG
100
AcDbLine
 10
387.423423
 20
773.626348
 30
0.421745
 11
387.301554
 21
773.626348
 31
0.421745
  0
LINE
  5
1B4
100
AcDbEntity
  8
025-DWG
100
AcDbLine
 10
387.301554
 20
773.626348
 30
0.421745
 11
387.179684
 21
773.626348
 31
0.421745
  0
LINE
  5
1B5
100
AcDbEntity
  8
025-DWG
100
AcDbLine
 10
387.179684
 20
773.626348
 30
0.421745
 11
387.057815
 21
773.626348
 31
0.421745
  0
LINE
  5
1B6
100
AcDbEntity
  8
025-DWG
100
AcDbLine
 10
387.057815
 20
773.626348
 30
0.421745
 11
386.935945
 21
773.626348
 31
0.421745
  0
LINE
  5
1B7
100
AcDbEntity
  8
025-DWG
100
AcDbLine
 10
386.935945
 20
773.626348
 30
0.421745
 11
386.814076
 21
773.626348
 31
0.421745
  0
LINE
  5
1B8
100
AcDbEntity
  8
025-DWG
100
AcDbLine
 10
386.814076
 20
773.626348
 30
0.421745
 11
386.692207
 21
773.626348
 31
0.421745
  0
LINE
  5
1B9
100
AcDbEntity
  8
025-DWG
100
AcDbLine
 10
386.692207
 20
773.626348
 30
0.421745
 11
386.570337
 21
773.626348
 31
0.421745
  0
LINE
  5
1BA
100
AcDbEntity
  8
025-DWG
100
AcDbLine
 10
386.570337
 20
773.626348
 30
0.421745
 11
386.448468
 21
773.626348
 31
0.421745
  0
LINE
  5
1BB
100
AcDbEntity
  8
025-DWG
100
AcDbLine
 10
386.448468
 20
773.626348
 30
0.421745
 11
386.326599
 21
773.626348
 31
0.421745
  0
LINE
  5
1BC
100
AcDbEntity
  8
025-DWG
100
AcDbLine
 10
386.326599
 20
773.626348
 30
0.421745
 11
386.204729
 21
773.626348
 31
0.421745
  0
LINE
  5
1BD
100
AcDbEntity
  8
025-DWG
100
AcDbLine
 10
386.204729
 20
773.626348
 30
0.421745
 11
386.08286
 21
773.626348
 31
0.421745
  0
LINE
  5
1BE
100
AcDbEntity
  8
025-DWG
100
AcDbLine
 10
386.08286
 20
773.626348
 30
0.421745
 11
385.988865
 21
773.626348
 31
0.421745
  0
LINE
  5
1BF
100
AcDbEntity
  8
025-DWG
100
AcDbLine
 10
387.193358
 20
773.319989
 30
0.421745
 11
387.524063
 21
773.626348
 31
0.421745
  0
LINE
  5
1C0
100
AcDbEntity
  8
025-DWG
100
AcDbLine
 10
386.041584
 20
773.382978
 30
0.421745
 11
386.040007
 21
773.322291
 31
0.421745
  0
LINE
  5
1C1
100
AcDbEntity
  8
025-DWG
100
AcDbLine
 10
386.163454
 20
773.382978
 30
0.421745
 11
386.161877
 21
773.322291
 31
0.421745
  0
LINE
  5
1C2
100
AcDbEntity
  8
025-DWG
100
AcDbLine
 10
386.285323
 20
773.382978
 30
0.421745
 11
386.283746
 21
773.322291
 31
0.421745
  0
LINE
  5
1C3
100
AcDbEntity
  8
025-DWG
100
AcDbLine
 10
386.407193
 20
773.382978
 30
0.421745
 11
386.405615
 21
773.322291
 31
0.421745
  0
LINE
  5
1C4
100
AcDbEntity
  8
025-DWG
100
AcDbLine
 10
386.529062
 20
773.382978
 30
0.421745
 11
386.527485
 21
773.322291
 31
0.421745
  0
LINE
  5
1C5
100
AcDbEntity
  8
025-DWG
100
AcDbLine
 10
387.138409
 20
773.382978
 30
0.421745
 11
387.136831
 21
773.322291
 31
0.421745
  0
LINE
  5
1C6
100
AcDbEntity
  8
025-DWG
100
AcDbLine
 10
387.016539
 20
773.382978
 30
0.421745
 11
387.014962
 21
773.322291
 31
0.421745
  0
LINE
  5
1C7
100
AcDbEntity
  8
025-DWG
100
AcDbLine
 10
386.89467
 20
773.382978
 30
0.421745
 11
386.893093
 21
773.322291
 31
0.421745
  0
LINE
  5
1C8
100
AcDbEntity
  8
025-DWG
100
AcDbLine
 10
386.772801
 20
773.382978
 30
0.421745
 11
386.771223
 21
773.322291
 31
0.421745
  0
LINE
  5
1C9
100
AcDbEntity
  8
025-DWG
100
AcDbLine
 10
386.650931
 20
773.382978
 30
0.421745
 11
386.649354
 21
773.322291
 31
0.421745
  0
LINE
  5
1CA
100
AcDbEntity
  8
035-DWG
100
AcDbLine
 10
387.015402
 20
775.1
 30
0.421745
 11
388.611424
 21
775.1
 31
0.421745
  0
LINE
  5
1CB
100
AcDbEntity
  8
035-DWG
100
AcDbLine
 10
388.97183
 20
775.1
 30
0.421745
 11
388.611424
 21
775.1
 31
0.421745
  0
LWPOLYLINE
  5
1CC
100
AcDbEntity
  8
025-DWG
100
AcDbPolyline
 90
        3
 70
     0
 43
0.0
 38
0.421745
 10
385.797846
 20
773.382978
 10
385.986761
 20
773.555067
 10
386.08286
 20
773.626348
  0
LWPOLYLINE
  5
1CD
100
AcDbEntity
  8
025-DWG
100
AcDbPolyline
 90
        6
 70
     0
 43
0.0
 38
0.421745
 10
386.102519
 20
773.382978
 10
385.958719
 20
773.239929
 10
385.881483
 20
773.151519
 10
385.900313
 20
773.151519
 10
386.008016
 20
773.239929
 10
386.163454
 20
773.382978
  0
LWPOLYLINE
  5
1CE
100
AcDbEntity
  8
025-DWG
100
AcDbPolyline
 90
        6
 70
     0
 43
0.0
 38
0.421745
 10
385.98065
 20
773.382978
 10
385.83685
 20
773.239929
 10
385.759614
 20
773.151519
 10
385.778444
 20
773.151519
 10
385.886147
 20
773.239929
 10
386.041584
 20
773.382978
  0
LWPOLYLINE
  5
1CF
100
AcDbEntity
  8
025-DWG
100
AcDbPolyline
 90
        4
 70
     0
 43
0.0
 38
0.421745
 10
386.204729
 20
773.626348
 10
386.18586
 20
773.593743
 10
386.103841
 20
773.504663
 10
385.98065
 20
773.382978
  0
LWPOLYLINE
  5
1D0
100
AcDbEntity
  8
025-DWG
100
AcDbPolyline
 90
        3
 70
     0
 43
0.0
 38
0.421745
 10
385.919715
 20
773.382978
 10
386.108631
 20
773.555067
 10
386.204729
 20
773.626348
  0
LWPOLYLINE
  5
1D1
100
AcDbEntity
  8
025-DWG
100
AcDbPolyline
 90
        4
 70
     0
 43
0.0
 38
0.421745
 10
386.08286
 20
773.626348
 10
386.063991
 20
773.593743
 10
385.981972
 20
773.504663
 10
385.85878
 20
773.382978
  0
LWPOLYLINE
  5
1D2
100
AcDbEntity
  8
025-DWG
100
AcDbPolyline
 90
        2
 70
     0
 43
0.0
 38
0.421745
 10
385.985252
 20
773.629343
 10
385.988865
 20
773.626348
  0
LWPOLYLINE
  5
1D3
100
AcDbEntity
  8
035-DWG
100
AcDbPolyline
 90
        2
 70
     0
 43
0.0
 38
0.421745
 10
385.98522
 20
773.629312
 10
385.998692
 20
774.126628
  0
LWPOLYLINE
  5
1D4
100
AcDbEntity
  8
025-DWG
100
AcDbPolyline
 90
        4
 70
     0
 43
0.0
 38
0.421745
 10
387.423423
 20
773.626348
 10
387.404554
 20
773.593743
 10
387.322535
 20
773.504663
 10
387.199343
 20
773.382978
  0
LWPOLYLINE
  5
1D5
100
AcDbEntity
  8
025-DWG
100
AcDbPolyline
 90
        6
 70
     0
 43
0.0
 38
0.421745
 10
387.199343
 20
773.382978
 10
387.065622
 20
773.250429
 10
386.984878
 20
773.160649
 10
386.983164
 20
773.142604
 10
387.061032
 20
773.202119
 10
387.193358
 20
773.319989
  0
LWPOLYLINE
  5
1D6
100
AcDbEntity
  8
025-DWG
100
AcDbPolyline
 90
        4
 70
     0
 43
0.0
 38
0.421745
 10
387.301554
 20
773.626348
 10
387.282684
 20
773.593743
 10
387.200666
 20
773.504663
 10
387.077474
 20
773.382978
  0
LWPOLYLINE
  5
1D7
100
AcDbEntity
  8
025-DWG
100
AcDbPolyline
 90
        6
 70
     0
 43
0.0
 38
0.421745
 10
387.077474
 20
773.382978
 10
386.933674
 20
773.239929
 10
386.856438
 20
773.151519
 10
386.875268
 20
773.151519
 10
386.982971
 20
773.239929
 10
387.138409
 20
773.382978
  0
LWPOLYLINE
  5
1D8
100
AcDbEntity
  8
025-DWG
100
AcDbPolyline
 90
        4
 70
     0
 43
0.0
 38
0.421745
 10
387.138409
 20
773.382978
 10
387.269764
 20
773.504663
 10
387.374086
 20
773.593743
 10
387.423423
 20
773.626348
  0
LWPOLYLINE
  5
1D9
100
AcDbEntity
  8
025-DWG
100
AcDbPolyline
 90
        3
 70
     0
 43
0.0
 38
0.421745
 10
387.179684
 20
773.626348
 10
387.126673
 20
773.555067
 10
386.955605
 20
773.382978
  0
LWPOLYLINE
  5
1DA
100
AcDbEntity
  8
025-DWG
100
AcDbPolyline
 90
        6
 70
     0
 43
0.0
 38
0.421745
 10
386.955605
 20
773.382978
 10
386.811804
 20
773.239929
 10
386.734568
 20
773.151519
 10
386.753398
 20
773.151519
 10
386.861102
 20
773.239929
 10
387.016539
 20
773.382978
  0
LWPOLYLINE
  5
1DB
100
AcDbEntity
  8
025-DWG
100
AcDbPolyline
 90
        3
 70
     0
 43
0.0
 38
0.421745
 10
387.016539
 20
773.382978
 10
387.205455
 20
773.555067
 10
387.301554
 20
773.626348
  0
LWPOLYLINE
  5
1DC
100
AcDbEntity
  8
025-DWG
100
AcDbPolyline
 90
        4
 70
     0
 43
0.0
 38
0.421745
 10
387.057815
 20
773.626348
 10
387.038946
 20
773.593743
 10
386.956927
 20
773.504663
 10
386.833735
 20
773.382978
  0
LWPOLYLINE
  5
1DD
100
AcDbEntity
  8
025-DWG
100
AcDbPolyline
 90
        7
 70
     0
 43
0.0
 38
0.421745
 10
386.833735
 20
773.382978
 10
386.710544
 20
773.261293
 10
386.628525
 20
773.172214
 10
386.609656
 20
773.139608
 10
386.658992
 20
773.172214
 10
386.763315
 20
773.261293
 10
386.89467
 20
773.382978
  0
LWPOLYLINE
  5
1DE
100
AcDbEntity
  8
025-DWG
100
AcDbPolyline
 90
        3
 70
     0
 43
0.0
 38
0.421745
 10
386.89467
 20
773.382978
 10
387.083585
 20
773.555067
 10
387.179684
 20
773.626348
  0
LWPOLYLINE
  5
1DF
100
AcDbEntity
  8
025-DWG
100
AcDbPolyline
 90
        4
 70
     0
 43
0.0
 38
0.421745
 10
386.935945
 20
773.626348
 10
386.917076
 20
773.593743
 10
386.835058
 20
773.504663
 10
386.711866
 20
773.382978
  0
LWPOLYLINE
  5
1E0
100
AcDbEntity
  8
025-DWG
100
AcDbPolyline
 90
        6
 70
     0
 43
0.0
 38
0.421745
 10
386.711866
 20
773.382978
 10
386.568066
 20
773.239929
 10
386.49083
 20
773.151519
 10
386.50966
 20
773.151519
 10
386.617363
 20
773.239929
 10
386.772801
 20
773.382978
  0
LWPOLYLINE
  5
1E1
100
AcDbEntity
  8
025-DWG
100
AcDbPolyline
 90
        3
 70
     0
 43
0.0
 38
0.421745
 10
386.772801
 20
773.382978
 10
386.961716
 20
773.555067
 10
387.057815
 20
773.626348
  0
LWPOLYLINE
  5
1E2
100
AcDbEntity
  8
025-DWG
100
AcDbPolyline
 90
        4
 70
     0
 43
0.0
 38
0.421745
 10
386.814076
 20
773.626348
 10
386.795207
 20
773.593743
 10
386.713188
 20
773.504663
 10
386.589997
 20
773.382978
  0
LWPOLYLINE
  5
1E3
100
AcDbEntity
  8
025-DWG
100
AcDbPolyline
 90
        6
 70
     0
 43
0.0
 38
0.421745
 10
386.589997
 20
773.382978
 10
386.446196
 20
773.239929
 10
386.36896
 20
773.151519
 10
386.38779
 20
773.151519
 10
386.495494
 20
773.239929
 10
386.650931
 20
773.382978
  0
LWPOLYLINE
  5
1E4
100
AcDbEntity
  8
025-DWG
100
AcDbPolyline
 90
        3
 70
     0
 43
0.0
 38
0.421745
 10
386.650931
 20
773.382978
 10
386.839847
 20
773.555067
 10
386.935945
 20
773.626348
  0
LWPOLYLINE
  5
1E5
100
AcDbEntity
  8
025-DWG
100
AcDbPolyline
 90
        6
 70
     0
 43
0.0
 38
0.421745
 10
386.468127
 20
773.382978
 10
386.324327
 20
773.239929
 10
386.247091
 20
773.151519
 10
386.265921
 20
773.151519
 10
386.373624
 20
773.239929
 10
386.529062
 20
773.382978
  0
LWPOLYLINE
  5
1E6
100
AcDbEntity
  8
025-DWG
100
AcDbPolyline
 90
        3
 70
     0
 43
0.0
 38
0.421745
 10
386.529062
 20
773.382978
 10
386.717977
 20
773.555067
 10
386.814076
 20
773.626348
  0
LWPOLYLINE
  5
1E7
100
AcDbEntity
  8
025-DWG
100
AcDbPolyline
 90
        4
 70
     0
 43
0.0
 38
0.421745
 10
386.692207
 20
773.626348
 10
386.673338
 20
773.593743
 10
386.591319
 20
773.504663
 10
386.468127
 20
773.382978
  0
LWPOLYLINE
  5
1E8
100
AcDbEntity
  8
025-DWG
100
AcDbPolyline
 90
        6
 70
     0
 43
0.0
 38
0.421745
 10
386.346258
 20
773.382978
 10
386.202458
 20
773.239929
 10
386.125222
 20
773.151519
 10
386.144052
 20
773.151519
 10
386.251755
 20
773.239929
 10
386.407193
 20
773.382978
  0
LWPOLYLINE
  5
1E9
100
AcDbEntity
  8
025-DWG
100
AcDbPolyline
 90
        3
 70
     0
 43
0.0
 38
0.421745
 10
386.407193
 20
773.382978
 10
386.596108
 20
773.555067
 10
386.692207
 20
773.626348
  0
LWPOLYLINE
  5
1EA
100
AcDbEntity
  8
025-DWG
100
AcDbPolyline
 90
        3
 70
     0
 43
0.0
 38
0.421745
 10
386.570337
 20
773.626348
 10
386.517326
 20
773.555067
 10
386.346258
 20
773.382978
  0
LWPOLYLINE
  5
1EB
100
AcDbEntity
  8
025-DWG
100
AcDbPolyline
 90
        6
 70
     0
 43
0.0
 38
0.421745
 10
386.224388
 20
773.382978
 10
386.080588
 20
773.239929
 10
386.003352
 20
773.151519
 10
386.022182
 20
773.151519
 10
386.129885
 20
773.239929
 10
386.285323
 20
773.382978
  0
LWPOLYLINE
  5
1EC
100
AcDbEntity
  8
025-DWG
100
AcDbPolyline
 90
        3
 70
     0
 43
0.0
 38
0.421745
 10
386.285323
 20
773.382978
 10
386.474239
 20
773.555067
 10
386.570337
 20
773.626348
  0
LWPOLYLINE
  5
1ED
100
AcDbEntity
  8
025-DWG
100
AcDbPolyline
 90
        4
 70
     0
 43
0.0
 38
0.421745
 10
386.448468
 20
773.626348
 10
386.429599
 20
773.593743
 10
386.34758
 20
773.504663
 10
386.224388
 20
773.382978
  0
LWPOLYLINE
  5
1EE
100
AcDbEntity
  8
025-DWG
100
AcDbPolyline
 90
        3
 70
     0
 43
0.0
 38
0.421745
 10
386.163454
 20
773.382978
 10
386.352369
 20
773.555067
 10
386.448468
 20
773.626348
  0
LWPOLYLINE
  5
1EF
100
AcDbEntity
  8
025-DWG
100
AcDbPolyline
 90
        4
 70
     0
 43
0.0
 38
0.421745
 10
386.326599
 20
773.626348
 10
386.30773
 20
773.593743
 10
386.225711
 20
773.504663
 10
386.102519
 20
773.382978
  0
LWPOLYLINE
  5
1F0
100
AcDbEntity
  8
025-DWG
100
AcDbPolyline
 90
        3
 70
     0
 43
0.0
 38
0.421745
 10
386.041584
 20
773.382978
 10
386.2305
 20
773.555067
 10
386.326599
 20
773.626348
  0
LWPOLYLINE
  5
1F1
100
AcDbEntity
  8
035-DWG
100
AcDbPolyline
 90
        6
 70
     0
 43
0.0
 38
0.421745
 10
385.672068
 20
773.319989
 10
385.557827
 20
773.202119
 10
385.511199
 20
773.142604
 10
385.54723
 20
773.160649
 10
385.654294
 20
773.250429
 10
385.797846
 20
773.382978
  0
LWPOLYLINE
  5
1F2
100
AcDbEntity
  8
025-DWG
100
AcDbPolyline
 90
        6
 70
     0
 43
0.0
 38
0.421745
 10
385.85878
 20
773.382978
 10
385.71498
 20
773.239929
 10
385.637744
 20
773.151519
 10
385.656574
 20
773.151519
 10
385.764277
 20
773.239929
 10
385.919715
 20
773.382978
  0
ELLIPSE
  5
1F3
100
AcDbEntity
  8
025-DWG
100
AcDbEllipse
 10
388.97183
 20
774.1
 30
0.421745
 11
-0.0000000000000339
 21
0.9999999999999996
 31
0.0
210
0.0
220
0.0
230
-1.0
 40
0.756345
 41
-1.544616388014908
 42
0.0000000000000449
  0
ELLIPSE
  5
1F4
100
AcDbEntity
  8
025-DWG
100
AcDbEllipse
 10
388.611424
 20
774.1
 30
0.421745
 11
-0.0000000000113597
 21
1.0
 31
0.0
210
0.0
220
0.0
230
-1.0
 40
0.992546
 41
-1.544616388003659
 42
0.0000000000114451
  0
LINE
  5
1F5
100
AcDbEntity
  8
035-DWG
100
AcDbLine
 10
402.9
 20
775.1
 30
0.421745
 11
402.9
 21
775.6
 31
0.421745
  0
LINE
  5
1F6
100
AcDbEntity
  8
035-DWG
100
AcDbLine
 10
412.9
 20
775.1
 30
0.421745
 11
412.9
 21
775.6
 31
0.421745
  0
LINE
  5
1F7
100
AcDbEntity
  8
035-DWG
100
AcDbLine
 10
412.9
 20
775.6
 30
0.421745
 11
402.9
 21
775.6
 31
0.421745
  0
LWPOLYLINE
  5
1F8
100
AcDbEntity
  8
025-DWG
100
AcDbPolyline
 90
        2
 70
     0
 43
1.0
 38
0.421745
 10
420.127701
 20
630.426177
 10
417.127701
 20
630.426177
  0
LWPOLYLINE
  5
1F9
100
AcDbEntity
  8
025-DWG
100
AcDbPolyline
 90
        2
 70
     0
 43
1.0
 38
0.421745
 10
420.127701
 20
671.226177
 10
417.127701
 20
671.226177
  0
LWPOLYLINE
  5
1FA
100
AcDbEntity
  8
025-DWG
100
AcDbPolyline
 90
        2
 70
     0
 43
1.0
 38
0.421745
 10
420.127701
 20
712.026177
 10
417.127701
 20
712.026177
  0
LINE
  5
1FB
100
AcDbEntity
  8
025-DWG
100
AcDbLine
 10
428.180782
 20
774.126177
 30
0.421745
 11
428.439367
 21
764.177059
 31
0.421745
  0
LINE
  5
1FC
100
AcDbEntity
  8
025-DWG
100
AcDbLine
 10
429.679638
 20
773.141421
 30
0.421745
 11
429.930609
 21
763.485228
 31
0.421745
  0
LINE
  5
1FD
100
AcDbEntity
  8
025-DWG
100
AcDbLine
 10
429.801507
 20
773.141421
 30
0.421745
 11
430.054735
 21
763.398416
 31
0.421745
  0
LINE
  5
1FE
100
AcDbEntity
  8
025-DWG
100
AcDbLine
 10
429.923376
 20
773.141421
 30
0.421745
 11
430.17886
 21
763.311604
 31
0.421745
  0
LINE
  5
1FF
100
AcDbEntity
  8
025-DWG
100
AcDbLine
 10
430.045246
 20
773.141421
 30
0.421745
 11
430.302986
 21
763.224791
 31
0.421745
  0
LINE
  5
200
100
AcDbEntity
  8
025-DWG
100
AcDbLine
 10
430.167115
 20
773.141421
 30
0.421745
 11
430.427112
 21
763.137979
 31
0.421745
  0
LINE
  5
201
100
AcDbEntity
  8
035-DWG
100
AcDbLine
 10
430.288984
 20
773.141421
 30
0.421745
 11
430.551237
 21
763.051167
 31
0.421745
  0
LINE
  5
202
100
AcDbEntity
  8
025-DWG
100
AcDbLine
 10
429.557768
 20
773.141421
 30
0.421745
 11
429.806483
 21
763.572041
 31
0.421745
  0
LINE
  5
203
100
AcDbEntity
  8
025-DWG
100
AcDbLine
 10
429.435899
 20
773.141421
 30
0.421745
 11
429.682358
 21
763.658853
 31
0.421745
  0
LINE
  5
204
100
AcDbEntity
  8
025-DWG
100
AcDbLine
 10
429.314029
 20
773.141421
 30
0.421745
 11
429.558232
 21
763.745665
 31
0.421745
  0
LINE
  5
205
100
AcDbEntity
  8
025-DWG
100
AcDbLine
 10
429.19216
 20
773.141421
 30
0.421745
 11
429.434106
 21
763.832477
 31
0.421745
  0
LINE
  5
206
100
AcDbEntity
  8
025-DWG
100
AcDbLine
 10
429.070291
 20
773.141421
 30
0.421745
 11
429.309981
 21
763.91929
 31
0.421745
  0
LINE
  5
207
100
AcDbEntity
  8
025-DWG
100
AcDbLine
 10
428.948421
 20
773.141421
 30
0.421745
 11
429.185855
 21
764.006102
 31
0.421745
  0
LINE
  5
208
100
AcDbEntity
  8
025-DWG
100
AcDbLine
 10
428.826552
 20
773.141421
 30
0.421745
 11
429.061729
 21
764.092914
 31
0.421745
  0
LINE
  5
209
100
AcDbEntity
  8
025-DWG
100
AcDbLine
 10
428.275937
 20
773.626348
 30
0.421745
 11
428.523052
 21
764.118531
 31
0.421745
  0
LINE
  5
20A
100
AcDbEntity
  8
025-DWG
100
AcDbLine
 10
428.606642
 20
773.319989
 30
0.421745
 11
428.845898
 21
764.114566
 31
0.421745
  0
LINE
  5
20B
100
AcDbEntity
  8
025-DWG
100
AcDbLine
 10
427.584256
 20
774.126177
 30
0.421745
 11
427.778738
 21
764.306612
 31
0.421745
  0
LINE
  5
20C
100
AcDbEntity
  8
035-DWG
100
AcDbLine
 10
428.274362
 20
762.990892
 30
0.421745
 11
426.606512
 21
764.15737
 31
0.421745
  0
LINE
  5
20D
100
AcDbEntity
  8
025-DWG
100
AcDbLine
 10
428.523052
 20
764.118531
 30
0.421745
 11
428.439367
 21
764.177059
 31
0.421745
  0
LINE
  5
20E
100
AcDbEntity
  8
025-DWG
100
AcDbLine
 10
428.845898
 20
764.114566
 30
0.421745
 11
428.523052
 21
764.118531
 31
0.421745
  0
LINE
  5
20F
100
AcDbEntity
  8
025-DWG
100
AcDbLine
 10
428.903576
 20
764.07256
 30
0.421745
 11
428.904739
 21
764.027803
 31
0.421745
  0
LINE
  5
210
100
AcDbEntity
  8
025-DWG
100
AcDbLine
 10
429.027702
 20
763.985747
 30
0.421745
 11
429.028865
 21
763.940991
 31
0.421745
  0
LINE
  5
211
100
AcDbEntity
  8
035-DWG
100
AcDbLine
 10
430.093442
 20
763.020215
 30
0.421745
 11
430.395354
 21
763.030891
 31
0.421745
  0
LINE
  5
212
100
AcDbEntity
  8
035-DWG
100
AcDbLine
 10
430.098602
 20
763.016606
 30
0.421745
 11
430.093442
 21
763.020215
 31
0.421745
  0
LINE
  5
213
100
AcDbEntity
  8
025-DWG
100
AcDbLine
 10
429.151827
 20
763.898935
 30
0.421745
 11
429.152991
 21
763.854179
 31
0.421745
  0
LINE
  5
214
100
AcDbEntity
  8
025-DWG
100
AcDbLine
 10
429.275953
 20
763.812123
 30
0.421745
 11
429.277116
 21
763.767366
 31
0.421745
  0
LINE
  5
215
100
AcDbEntity
  8
025-DWG
100
AcDbLine
 10
429.400079
 20
763.725311
 30
0.421745
 11
429.401242
 21
763.680554
 31
0.421745
  0
LINE
  5
216
100
AcDbEntity
  8
025-DWG
100
AcDbLine
 10
429.524204
 20
763.638498
 30
0.421745
 11
429.525368
 21
763.593742
 31
0.421745
  0
LINE
  5
217
100
AcDbEntity
  8
025-DWG
100
AcDbLine
 10
430.268958
 20
763.117625
 30
0.421745
 11
430.270122
 21
763.072868
 31
0.421745
  0
LINE
  5
218
100
AcDbEntity
  8
025-DWG
100
AcDbLine
 10
430.144833
 20
763.204437
 30
0.421745
 11
430.145996
 21
763.15968
 31
0.421745
  0
LINE
  5
219
100
AcDbEntity
  8
025-DWG
100
AcDbLine
 10
430.020707
 20
763.291249
 30
0.421745
 11
430.02187
 21
763.246493
 31
0.421745
  0
LINE
  5
21A
100
AcDbEntity
  8
025-DWG
100
AcDbLine
 10
429.896581
 20
763.378061
 30
0.421745
 11
429.897745
 21
763.333305
 31
0.421745
  0
LINE
  5
21B
100
AcDbEntity
  8
025-DWG
100
AcDbLine
 10
429.772456
 20
763.464874
 30
0.421745
 11
429.773619
 21
763.420117
 31
0.421745
  0
LINE
  5
21C
100
AcDbEntity
  8
025-DWG
100
AcDbLine
 10
429.64833
 20
763.551686
 30
0.421745
 11
429.649493
 21
763.50693
 31
0.421745
  0
LWPOLYLINE
  5
21D
100
AcDbEntity
  8
035-DWG
100
AcDbPolyline
 90
        3
 70
     0
 43
0.0
 38
0.421745
 10
426.606512
 20
764.15737
 10
426.532252
 20
764.18066
 10
426.383758
 20
764.201053
  0
LWPOLYLINE
  5
21E
100
AcDbEntity
  8
025-DWG
100
AcDbPolyline
 90
        6
 70
     0
 43
0.0
 38
0.421745
 10
429.277116
 20
763.767366
 10
429.12533
 20
763.769944
 10
429.019667
 20
763.779828
 10
429.000489
 20
763.793241
 10
429.07512
 20
763.805061
 10
429.215053
 20
763.810773
  0
LWPOLYLINE
  5
21F
100
AcDbEntity
  8
025-DWG
100
AcDbPolyline
 90
        6
 70
     0
 43
0.0
 38
0.421745
 10
429.152991
 20
763.854179
 10
429.001204
 20
763.856757
 10
428.895542
 20
763.86664
 10
428.876363
 20
763.880053
 10
428.950994
 20
763.891873
 10
429.090928
 20
763.897585
  0
LWPOLYLINE
  5
220
100
AcDbEntity
  8
025-DWG
100
AcDbPolyline
 90
        7
 70
     0
 43
0.0
 38
0.421745
 10
429.090928
 20
763.897585
 10
429.210847
 20
763.901825
 10
429.290318
 20
763.910745
 10
429.308049
 20
763.921954
 10
429.259287
 20
763.932448
 10
429.157099
 20
763.939416
 10
429.028865
 20
763.940991
  0
LWPOLYLINE
  5
221
100
AcDbEntity
  8
025-DWG
100
AcDbPolyline
 90
        6
 70
     0
 43
0.0
 38
0.421745
 10
428.966802
 20
763.984397
 10
429.106736
 20
763.990109
 10
429.181367
 20
764.001929
 10
429.162188
 20
764.015342
 10
429.056526
 20
764.025225
 10
428.904739
 20
764.027803
  0
LWPOLYLINE
  5
222
100
AcDbEntity
  8
035-DWG
100
AcDbPolyline
 90
        3
 70
     0
 43
0.0
 38
0.421745
 10
429.498092
 20
762.968497
 10
428.886617
 20
762.979858
 10
428.274362
 20
762.990892
  0
LWPOLYLINE
  5
223
100
AcDbEntity
  8
035-DWG
100
AcDbPolyline
 90
        6
 70
     0
 43
0.0
 38
0.421745
 10
430.395354
 20
763.030891
 10
430.50633
 20
763.038624
 10
430.551104
 20
763.050403
 10
430.51523
 20
763.062428
 10
430.410281
 20
763.070819
 10
430.270122
 20
763.072868
  0
LWPOLYLINE
  5
224
100
AcDbEntity
  8
025-DWG
100
AcDbPolyline
 90
        6
 70
     0
 43
0.0
 38
0.421745
 10
430.270122
 20
763.072868
 10
430.118335
 20
763.075446
 10
430.012672
 20
763.085329
 10
429.993494
 20
763.098742
 10
430.068125
 20
763.110562
 10
430.208059
 20
763.116274
  0
LWPOLYLINE
  5
225
100
AcDbEntity
  8
025-DWG
100
AcDbPolyline
 90
        7
 70
     0
 43
0.0
 38
0.421745
 10
430.208059
 20
763.116274
 10
430.327977
 20
763.120515
 10
430.407449
 20
763.129434
 10
430.42518
 20
763.140643
 10
430.376418
 20
763.151137
 10
430.274229
 20
763.158106
 10
430.145996
 20
763.15968
  0
LWPOLYLINE
  5
226
100
AcDbEntity
  8
025-DWG
100
AcDbPolyline
 90
        6
 70
     0
 43
0.0
 38
0.421745
 10
430.145996
 20
763.15968
 10
429.994209
 20
763.162258
 10
429.888547
 20
763.172142
 10
429.869368
 20
763.185555
 10
429.943999
 20
763.197375
 10
430.083933
 20
763.203086
  0
LWPOLYLINE
  5
227
100
AcDbEntity
  8
025-DWG
100
AcDbPolyline
 90
        7
 70
     0
 43
0.0
 38
0.421745
 10
430.083933
 20
763.203086
 10
430.203852
 20
763.207327
 10
430.283324
 20
763.216247
 10
430.301054
 20
763.227455
 10
430.252292
 20
763.23795
 10
430.150104
 20
763.244918
 10
430.02187
 20
763.246493
  0
LWPOLYLINE
  5
228
100
AcDbEntity
  8
025-DWG
100
AcDbPolyline
 90
        6
 70
     0
 43
0.0
 38
0.421745
 10
430.02187
 20
763.246493
 10
429.870083
 20
763.249071
 10
429.764421
 20
763.258954
 10
429.745243
 20
763.272367
 10
429.819874
 20
763.284187
 10
429.959807
 20
763.289899
  0
LWPOLYLINE
  5
229
100
AcDbEntity
  8
025-DWG
100
AcDbPolyline
 90
        6
 70
     0
 43
0.0
 38
0.421745
 10
429.959807
 20
763.289899
 10
430.099741
 20
763.295611
 10
430.174372
 20
763.30743
 10
430.155194
 20
763.320844
 10
430.049531
 20
763.330727
 10
429.897745
 20
763.333305
  0
LWPOLYLINE
  5
22A
100
AcDbEntity
  8
025-DWG
100
AcDbPolyline
 90
        6
 70
     0
 43
0.0
 38
0.421745
 10
429.897745
 20
763.333305
 10
429.745958
 20
763.335883
 10
429.640296
 20
763.345766
 10
429.621117
 20
763.359179
 10
429.695748
 20
763.370999
 10
429.835682
 20
763.376711
  0
LWPOLYLINE
  5
22B
100
AcDbEntity
  8
025-DWG
100
AcDbPolyline
 90
        7
 70
     0
 43
0.0
 38
0.421745
 10
429.835682
 20
763.376711
 10
429.9556
 20
763.380952
 10
430.035072
 20
763.389871
 10
430.052803
 20
763.40108
 10
430.004041
 20
763.411574
 10
429.901852
 20
763.418542
 10
429.773619
 20
763.420117
  0
LWPOLYLINE
  5
22C
100
AcDbEntity
  8
025-DWG
100
AcDbPolyline
 90
        6
 70
     0
 43
0.0
 38
0.421745
 10
429.773619
 20
763.420117
 10
429.621832
 20
763.422695
 10
429.51617
 20
763.432578
 10
429.496991
 20
763.445992
 10
429.571622
 20
763.457812
 10
429.711556
 20
763.463523
  0
LWPOLYLINE
  5
22D
100
AcDbEntity
  8
025-DWG
100
AcDbPolyline
 90
        6
 70
     0
 43
0.0
 38
0.421745
 10
429.711556
 20
763.463523
 10
429.85149
 20
763.469235
 10
429.926121
 20
763.481055
 10
429.906942
 20
763.494468
 10
429.80128
 20
763.504351
 10
429.649493
 20
763.50693
  0
LWPOLYLINE
  5
22E
100
AcDbEntity
  8
025-DWG
100
AcDbPolyline
 90
        6
 70
     0
 43
0.0
 38
0.421745
 10
429.649493
 20
763.50693
 10
429.497707
 20
763.509508
 10
429.392044
 20
763.519391
 10
429.372866
 20
763.532804
 10
429.447497
 20
763.544624
 10
429.58743
 20
763.550336
  0
LWPOLYLINE
  5
22F
100
AcDbEntity
  8
025-DWG
100
AcDbPolyline
 90
        6
 70
     0
 43
0.0
 38
0.421745
 10
429.58743
 20
763.550336
 10
429.727364
 20
763.556047
 10
429.801995
 20
763.567867
 10
429.782817
 20
763.581281
 10
429.677154
 20
763.591164
 10
429.525368
 20
763.593742
  0
LWPOLYLINE
  5
230
100
AcDbEntity
  8
025-DWG
100
AcDbPolyline
 90
        6
 70
     0
 43
0.0
 38
0.421745
 10
429.525368
 20
763.593742
 10
429.373581
 20
763.59632
 10
429.267919
 20
763.606203
 10
429.24874
 20
763.619616
 10
429.323371
 20
763.631436
 10
429.463305
 20
763.637148
  0
LWPOLYLINE
  5
231
100
AcDbEntity
  8
025-DWG
100
AcDbPolyline
 90
        7
 70
     0
 43
0.0
 38
0.421745
 10
429.463305
 20
763.637148
 10
429.583224
 20
763.641388
 10
429.662695
 20
763.650308
 10
429.680426
 20
763.661517
 10
429.631664
 20
763.672011
 10
429.529476
 20
763.678979
 10
429.401242
 20
763.680554
  0
LWPOLYLINE
  5
232
100
AcDbEntity
  8
025-DWG
100
AcDbPolyline
 90
        6
 70
     0
 43
0.0
 38
0.421745
 10
429.401242
 20
763.680554
 10
429.249455
 20
763.683132
 10
429.143793
 20
763.693015
 10
429.124614
 20
763.706429
 10
429.199245
 20
763.718248
 10
429.339179
 20
763.72396
  0
LWPOLYLINE
  5
233
100
AcDbEntity
  8
025-DWG
100
AcDbPolyline
 90
        7
 70
     0
 43
0.0
 38
0.421745
 10
429.339179
 20
763.72396
 10
429.459098
 20
763.728201
 10
429.53857
 20
763.73712
 10
429.5563
 20
763.748329
 10
429.507538
 20
763.758823
 10
429.40535
 20
763.765792
 10
429.277116
 20
763.767366
  0
LWPOLYLINE
  5
234
100
AcDbEntity
  8
025-DWG
100
AcDbPolyline
 90
        6
 70
     0
 43
0.0
 38
0.421745
 10
429.215053
 20
763.810773
 10
429.354987
 20
763.816484
 10
429.429618
 20
763.828304
 10
429.41044
 20
763.841718
 10
429.304777
 20
763.851601
 10
429.152991
 20
763.854179
  0
LWPOLYLINE
  5
235
100
AcDbEntity
  8
035-DWG
100
AcDbPolyline
 90
        3
 70
     0
 43
0.0
 38
0.421745
 10
430.098602
 20
763.016606
 10
430.098551
 20
763.0185
 10
430.098499
 20
763.020394
  0
LWPOLYLINE
  5
236
100
AcDbEntity
  8
035-DWG
100
AcDbPolyline
 90
        6
 70
     0
 43
0.0
 38
0.421745
 10
429.498092
 20
762.968497
 10
429.69113
 20
762.96819
 10
429.870601
 20
762.974284
 10
430.010327
 20
762.985877
 10
430.08956
 20
763.001292
 10
430.098602
 20
763.016606
  0
LWPOLYLINE
  5
237
100
AcDbEntity
  8
035-DWG
100
AcDbPolyline
 90
        2
 70
     0
 43
0.0
 38
0.421745
 10
430.102222
 20
763.020526
 10
430.102472
 20
763.011274
  0
LWPOLYLINE
  5
238
100
AcDbEntity
  8
025-DWG
100
AcDbPolyline
 90
        6
 70
     0
 43
0.0
 38
0.421745
 10
429.028865
 20
763.940991
 10
428.877078
 20
763.943569
 10
428.771416
 20
763.953452
 10
428.752237
 20
763.966865
 10
428.826868
 20
763.978685
 10
428.966802
 20
763.984397
  0
LWPOLYLINE
  5
239
100
AcDbEntity
  8
025-DWG
100
AcDbPolyline
 90
        6
 70
     0
 43
0.0
 38
0.421745
 10
428.904739
 20
764.027803
 10
428.752953
 20
764.030381
 10
428.64729
 20
764.040265
 10
428.628112
 20
764.053678
 10
428.702743
 20
764.065498
 10
428.842676
 20
764.071209
  0
LWPOLYLINE
  5
23A
100
AcDbEntity
  8
025-DWG
100
AcDbPolyline
 90
        6
 70
     0
 43
0.0
 38
0.421745
 10
428.842676
 20
764.071209
 10
428.972824
 20
764.076163
 10
429.050965
 20
764.08652
 10
429.051888
 20
764.098941
 10
428.975294
 20
764.109416
 10
428.845898
 20
764.114566
  0
LWPOLYLINE
  5
23B
100
AcDbEntity
  8
025-DWG
100
AcDbPolyline
 90
        3
 70
     0
 43
0.0
 38
0.421745
 10
428.439367
 20
764.177059
 10
428.21913
 20
764.246132
 10
427.778738
 20
764.306612
  0
LWPOLYLINE
  5
23C
100
AcDbEntity
  8
025-DWG
100
AcDbPolyline
 90
        2
 70
     0
 43
1.0
 38
0.421745
 10
420.127701
 20
752.826177
 10
417.127701
 20
752.826177
  0
LINE
  5
23D
100
AcDbEntity
  8
035-DWG
100
AcDbLine
 10
427.188576
 20
775.1
 30
0.421745
 11
428.784598
 21
775.1
 31
0.421745
  0
LINE
  5
23E
100
AcDbEntity
  8
025-DWG
100
AcDbLine
 10
429.797595
 20
774.126177
 30
0.421745
 11
428.180782
 21
774.126177
 31
0.421745
  0
POLYLINE
  5
23F
100
AcDbEntity
  8
035-DWG
100
AcDb2dPolyline
 66
     1
 10
0.0
 20
0.0
 30
0.421745
 70
     2
  0
VERTEX
  5
240
100
AcDbEntity
  8
035-DWG
100
AcDbVertex
100
AcDb2dVertex
 10
429.797595
 20
774.126177
 30
0.421745
 42
0.022422
  0
VERTEX
  5
241
100
AcDbEntity
  8
035-DWG
100
AcDbVertex
100
AcDb2dVertex
 10
429.789509
 20
774.238618
 30
0.421745
 42
0.038825
 70
     1
  0
VERTEX
  5
242
100
AcDbEntity
  8
035-DWG
100
AcDbVertex
100
AcDb2dVertex
 10
429.776931
 20
774.302561
 30
0.421745
 42
0.051699
  0
VERTEX
  5
243
100
AcDbEntity
  8
035-DWG
100
AcDbVertex
100
AcDb2dVertex
 10
429.663304
 20
774.591105
 30
0.421745
 42
0.070823
 70
     1
  0
VERTEX
  5
244
100
AcDbEntity
  8
035-DWG
100
AcDbVertex
100
AcDb2dVertex
 10
429.53149
 20
774.775795
 30
0.421745
 42
0.043792
  0
VERTEX
  5
245
100
AcDbEntity
  8
035-DWG
100
AcDbVertex
100
AcDb2dVertex
 10
429.368645
 20
774.919196
 30
0.421745
 42
0.058803
 70
     1
  0
VERTEX
  5
246
100
AcDbEntity
  8
035-DWG
100
AcDbVertex
100
AcDb2dVertex
 10
429.227955
 20
774.999189
 30
0.421745
 42
0.020723
  0
VERTEX
  5
247
100
AcDbEntity
  8
035-DWG
100
AcDbVertex
100
AcDb2dVertex
 10
429.115144
 20
775.041404
 30
0.421745
 42
0.017005
 70
     1
  0
VERTEX
  5
248
100
AcDbEntity
  8
035-DWG
100
AcDbVertex
100
AcDb2dVertex
 10
428.974204
 20
775.082334
 30
0.421745
 42
0.03895
  0
VERTEX
  5
249
100
AcDbEntity
  8
035-DWG
100
AcDbVertex
100
AcDb2dVertex
 10
428.903852
 20
775.094466
 30
0.421745
 42
0.023269
 70
     1
  0
VERTEX
  5
24A
100
AcDbEntity
  8
035-DWG
100
AcDbVertex
100
AcDb2dVertex
 10
428.784598
 20
775.1
 30
0.421745
  0
SEQEND
  5
24B
100
AcDbEntity
  8
035-DWG
  0
LINE
  5
24C
100
AcDbEntity
  8
025-DWG
100
AcDbLine
 10
428.985924
 20
773.626348
 30
0.421745
 11
428.864055
 21
773.626348
 31
0.421745
  0
LINE
  5
24D
100
AcDbEntity
  8
025-DWG
100
AcDbLine
 10
428.864055
 20
773.626348
 30
0.421745
 11
428.742185
 21
773.626348
 31
0.421745
  0
LINE
  5
24E
100
AcDbEntity
  8
025-DWG
100
AcDbLine
 10
428.742185
 20
773.626348
 30
0.421745
 11
428.620316
 21
773.626348
 31
0.421745
  0
LINE
  5
24F
100
AcDbEntity
  8
025-DWG
100
AcDbLine
 10
428.620316
 20
773.626348
 30
0.421745
 11
428.498446
 21
773.626348
 31
0.421745
  0
LINE
  5
250
100
AcDbEntity
  8
025-DWG
100
AcDbLine
 10
428.498446
 20
773.626348
 30
0.421745
 11
428.376577
 21
773.626348
 31
0.421745
  0
LINE
  5
251
100
AcDbEntity
  8
025-DWG
100
AcDbLine
 10
428.376577
 20
773.626348
 30
0.421745
 11
428.275937
 21
773.626348
 31
0.421745
  0
LINE
  5
252
100
AcDbEntity
  8
025-DWG
100
AcDbLine
 10
428.275937
 20
773.626348
 30
0.421745
 11
428.606642
 21
773.319989
 31
0.421745
  0
LINE
  5
253
100
AcDbEntity
  8
025-DWG
100
AcDbLine
 10
428.661591
 20
773.382978
 30
0.421745
 11
428.663169
 21
773.322291
 31
0.421745
  0
LINE
  5
254
100
AcDbEntity
  8
025-DWG
100
AcDbLine
 10
428.783461
 20
773.382978
 30
0.421745
 11
428.785038
 21
773.322291
 31
0.421745
  0
LINE
  5
255
100
AcDbEntity
  8
025-DWG
100
AcDbLine
 10
428.90533
 20
773.382978
 30
0.421745
 11
428.906907
 21
773.322291
 31
0.421745
  0
LINE
  5
256
100
AcDbEntity
  8
025-DWG
100
AcDbLine
 10
429.027199
 20
773.382978
 30
0.421745
 11
429.028777
 21
773.322291
 31
0.421745
  0
LINE
  5
257
100
AcDbEntity
  8
025-DWG
100
AcDbLine
 10
429.811135
 20
773.626348
 30
0.421745
 11
429.71714
 21
773.626348
 31
0.421745
  0
LINE
  5
258
100
AcDbEntity
  8
025-DWG
100
AcDbLine
 10
429.71714
 20
773.626348
 30
0.421745
 11
429.595271
 21
773.626348
 31
0.421745
  0
LINE
  5
259
100
AcDbEntity
  8
025-DWG
100
AcDbLine
 10
429.595271
 20
773.626348
 30
0.421745
 11
429.473401
 21
773.626348
 31
0.421745
  0
LINE
  5
25A
100
AcDbEntity
  8
025-DWG
100
AcDbLine
 10
429.473401
 20
773.626348
 30
0.421745
 11
429.351532
 21
773.626348
 31
0.421745
  0
LINE
  5
25B
100
AcDbEntity
  8
025-DWG
100
AcDbLine
 10
429.351532
 20
773.626348
 30
0.421745
 11
429.229663
 21
773.626348
 31
0.421745
  0
LINE
  5
25C
100
AcDbEntity
  8
025-DWG
100
AcDbLine
 10
429.229663
 20
773.626348
 30
0.421745
 11
429.107793
 21
773.626348
 31
0.421745
  0
LINE
  5
25D
100
AcDbEntity
  8
035-DWG
100
AcDbLine
 10
430.127932
 20
773.319989
 30
0.421745
 11
429.814748
 21
773.629343
 31
0.421745
  0
LINE
  5
25E
100
AcDbEntity
  8
025-DWG
100
AcDbLine
 10
429.149069
 20
773.382978
 30
0.421745
 11
429.150646
 21
773.322291
 31
0.421745
  0
LINE
  5
25F
100
AcDbEntity
  8
025-DWG
100
AcDbLine
 10
429.270938
 20
773.382978
 30
0.421745
 11
429.272515
 21
773.322291
 31
0.421745
  0
LINE
  5
260
100
AcDbEntity
  8
025-DWG
100
AcDbLine
 10
430.002154
 20
773.382978
 30
0.421745
 11
430.003732
 21
773.322291
 31
0.421745
  0
LINE
  5
261
100
AcDbEntity
  8
025-DWG
100
AcDbLine
 10
429.880285
 20
773.382978
 30
0.421745
 11
429.881862
 21
773.322291
 31
0.421745
  0
LINE
  5
262
100
AcDbEntity
  8
025-DWG
100
AcDbLine
 10
429.758416
 20
773.382978
 30
0.421745
 11
429.759993
 21
773.322291
 31
0.421745
  0
LINE
  5
263
100
AcDbEntity
  8
025-DWG
100
AcDbLine
 10
429.636546
 20
773.382978
 30
0.421745
 11
429.638123
 21
773.322291
 31
0.421745
  0
LINE
  5
264
100
AcDbEntity
  8
025-DWG
100
AcDbLine
 10
429.514677
 20
773.382978
 30
0.421745
 11
429.516254
 21
773.322291
 31
0.421745
  0
LINE
  5
265
100
AcDbEntity
  8
025-DWG
100
AcDbLine
 10
429.392807
 20
773.382978
 30
0.421745
 11
429.394385
 21
773.322291
 31
0.421745
  0
LINE
  5
266
100
AcDbEntity
  8
025-DWG
100
AcDbLine
 10
429.107793
 20
773.626348
 30
0.421745
 11
428.985924
 21
773.626348
 31
0.421745
  0
LINE
  5
267
100
AcDbEntity
  8
025-DWG
100
AcDbLine
 10
427.584256
 20
774.126177
 30
0.421745
 11
428.180782
 21
774.126177
 31
0.421745
  0
LINE
  5
268
100
AcDbEntity
  8
035-DWG
100
AcDbLine
 10
427.188576
 20
775.1
 30
0.421745
 11
426.82817
 21
775.1
 31
0.421745
  0
ELLIPSE
  5
269
100
AcDbEntity
  8
025-DWG
100
AcDbEllipse
 10
426.82817
 20
774.1
 30
0.421745
 11
-0.0000000000001563
 21
1.0
 31
0.0
210
0.0
220
0.0
230
-1.0
 40
0.756345
 41
0.0000000000002067
 42
1.544616388015052
  0
ELLIPSE
  5
26A
100
AcDbEntity
  8
025-DWG
100
AcDbEllipse
 10
427.188576
 20
774.1
 30
0.421745
 11
0.0000000000058791
 21
1.0
 31
0.0
210
0.0
220
0.0
230
-1.0
 40
0.992546
 41
-0.0000000000059233
 42
1.544616388009099
  0
LWPOLYLINE
  5
26B
100
AcDbEntity
  8
025-DWG
100
AcDbPolyline
 90
        3
 70
     0
 43
0.0
 38
0.421745
 10
428.985924
 20
773.626348
 10
429.082023
 20
773.555067
 10
429.270938
 20
773.382978
  0
LWPOLYLINE
  5
26C
100
AcDbEntity
  8
025-DWG
100
AcDbPolyline
 90
        4
 70
     0
 43
0.0
 38
0.421745
 10
429.210003
 20
773.382978
 10
429.086812
 20
773.504663
 10
429.004793
 20
773.593743
 10
428.985924
 20
773.626348
  0
LWPOLYLINE
  5
26D
100
AcDbEntity
  8
025-DWG
100
AcDbPolyline
 90
        4
 70
     0
 43
0.0
 38
0.421745
 10
428.864055
 20
773.626348
 10
428.913391
 20
773.593743
 10
429.017713
 20
773.504663
 10
429.149069
 20
773.382978
  0
LWPOLYLINE
  5
26E
100
AcDbEntity
  8
025-DWG
100
AcDbPolyline
 90
        7
 70
     0
 43
0.0
 38
0.421745
 10
429.027199
 20
773.382978
 10
429.158555
 20
773.261293
 10
429.262877
 20
773.172214
 10
429.312214
 20
773.139608
 10
429.293345
 20
773.172214
 10
429.211326
 20
773.261293
 10
429.088134
 20
773.382978
  0
LWPOLYLINE
  5
26F
100
AcDbEntity
  8
025-DWG
100
AcDbPolyline
 90
        3
 70
     0
 43
0.0
 38
0.421745
 10
429.088134
 20
773.382978
 10
428.917066
 20
773.555067
 10
428.864055
 20
773.626348
  0
LWPOLYLINE
  5
270
100
AcDbEntity
  8
025-DWG
100
AcDbPolyline
 90
        6
 70
     0
 43
0.0
 38
0.421745
 10
428.90533
 20
773.382978
 10
429.060768
 20
773.239929
 10
429.168471
 20
773.151519
 10
429.187301
 20
773.151519
 10
429.110065
 20
773.239929
 10
428.966265
 20
773.382978
  0
LWPOLYLINE
  5
271
100
AcDbEntity
  8
025-DWG
100
AcDbPolyline
 90
        6
 70
     0
 43
0.0
 38
0.421745
 10
428.783461
 20
773.382978
 10
428.938898
 20
773.239929
 10
429.046602
 20
773.151519
 10
429.065432
 20
773.151519
 10
428.988196
 20
773.239929
 10
428.844395
 20
773.382978
  0
LWPOLYLINE
  5
272
100
AcDbEntity
  8
025-DWG
100
AcDbPolyline
 90
        3
 70
     0
 43
0.0
 38
0.421745
 10
429.71714
 20
773.626348
 10
429.813239
 20
773.555067
 10
430.002154
 20
773.382978
  0
LWPOLYLINE
  5
273
100
AcDbEntity
  8
035-DWG
100
AcDbPolyline
 90
        6
 70
     0
 43
0.0
 38
0.421745
 10
430.002154
 20
773.382978
 10
430.145706
 20
773.250429
 10
430.25277
 20
773.160649
 10
430.288801
 20
773.142604
 10
430.242173
 20
773.202119
 10
430.127932
 20
773.319989
  0
LWPOLYLINE
  5
274
100
AcDbEntity
  8
025-DWG
100
AcDbPolyline
 90
        3
 70
     0
 43
0.0
 38
0.421745
 10
429.595271
 20
773.626348
 10
429.691369
 20
773.555067
 10
429.880285
 20
773.382978
  0
LWPOLYLINE
  5
275
100
AcDbEntity
  8
025-DWG
100
AcDbPolyline
 90
        7
 70
     0
 43
0.0
 38
0.421745
 10
429.880285
 20
773.382978
 10
430.01164
 20
773.261293
 10
430.115963
 20
773.172214
 10
430.165299
 20
773.139608
 10
430.14643
 20
773.172214
 10
430.064411
 20
773.261293
 10
429.94122
 20
773.382978
  0
LWPOLYLINE
  5
276
100
AcDbEntity
  8
025-DWG
100
AcDbPolyline
 90
        4
 70
     0
 43
0.0
 38
0.421745
 10
429.94122
 20
773.382978
 10
429.818028
 20
773.504663
 10
429.736009
 20
773.593743
 10
429.71714
 20
773.626348
  0
LWPOLYLINE
  5
277
100
AcDbEntity
  8
025-DWG
100
AcDbPolyline
 90
        3
 70
     0
 43
0.0
 38
0.421745
 10
429.473401
 20
773.626348
 10
429.5695
 20
773.555067
 10
429.758416
 20
773.382978
  0
LWPOLYLINE
  5
278
100
AcDbEntity
  8
025-DWG
100
AcDbPolyline
 90
        7
 70
     0
 43
0.0
 38
0.421745
 10
429.758416
 20
773.382978
 10
429.889771
 20
773.261293
 10
429.994093
 20
773.172214
 10
430.04343
 20
773.139608
 10
430.024561
 20
773.172214
 10
429.942542
 20
773.261293
 10
429.81935
 20
773.382978
  0
LWPOLYLINE
  5
279
100
AcDbEntity
  8
025-DWG
100
AcDbPolyline
 90
        4
 70
     0
 43
0.0
 38
0.421745
 10
429.81935
 20
773.382978
 10
429.696159
 20
773.504663
 10
429.61414
 20
773.593743
 10
429.595271
 20
773.626348
  0
LWPOLYLINE
  5
27A
100
AcDbEntity
  8
025-DWG
100
AcDbPolyline
 90
        3
 70
     0
 43
0.0
 38
0.421745
 10
429.351532
 20
773.626348
 10
429.447631
 20
773.555067
 10
429.636546
 20
773.382978
  0
LWPOLYLINE
  5
27B
100
AcDbEntity
  8
025-DWG
100
AcDbPolyline
 90
        6
 70
     0
 43
0.0
 38
0.421745
 10
429.636546
 20
773.382978
 10
429.791984
 20
773.239929
 10
429.899687
 20
773.151519
 10
429.918517
 20
773.151519
 10
429.841281
 20
773.239929
 10
429.697481
 20
773.382978
  0
LWPOLYLINE
  5
27C
100
AcDbEntity
  8
025-DWG
100
AcDbPolyline
 90
        4
 70
     0
 43
0.0
 38
0.421745
 10
429.697481
 20
773.382978
 10
429.574289
 20
773.504663
 10
429.49227
 20
773.593743
 10
429.473401
 20
773.626348
  0
LWPOLYLINE
  5
27D
100
AcDbEntity
  8
025-DWG
100
AcDbPolyline
 90
        3
 70
     0
 43
0.0
 38
0.421745
 10
429.229663
 20
773.626348
 10
429.325761
 20
773.555067
 10
429.514677
 20
773.382978
  0
LWPOLYLINE
  5
27E
100
AcDbEntity
  8
025-DWG
100
AcDbPolyline
 90
        6
 70
     0
 43
0.0
 38
0.421745
 10
429.514677
 20
773.382978
 10
429.670115
 20
773.239929
 10
429.777818
 20
773.151519
 10
429.796648
 20
773.151519
 10
429.719412
 20
773.239929
 10
429.575612
 20
773.382978
  0
LWPOLYLINE
  5
27F
100
AcDbEntity
  8
025-DWG
100
AcDbPolyline
 90
        3
 70
     0
 43
0.0
 38
0.421745
 10
429.575612
 20
773.382978
 10
429.404543
 20
773.555067
 10
429.351532
 20
773.626348
  0
LWPOLYLINE
  5
280
100
AcDbEntity
  8
025-DWG
100
AcDbPolyline
 90
        3
 70
     0
 43
0.0
 38
0.421745
 10
429.107793
 20
773.626348
 10
429.203892
 20
773.555067
 10
429.392807
 20
773.382978
  0
LWPOLYLINE
  5
281
100
AcDbEntity
  8
025-DWG
100
AcDbPolyline
 90
        6
 70
     0
 43
0.0
 38
0.421745
 10
429.392807
 20
773.382978
 10
429.548245
 20
773.239929
 10
429.655948
 20
773.151519
 10
429.674778
 20
773.151519
 10
429.597542
 20
773.239929
 10
429.453742
 20
773.382978
  0
LWPOLYLINE
  5
282
100
AcDbEntity
  8
025-DWG
100
AcDbPolyline
 90
        4
 70
     0
 43
0.0
 38
0.421745
 10
429.453742
 20
773.382978
 10
429.330551
 20
773.504663
 10
429.248532
 20
773.593743
 10
429.229663
 20
773.626348
  0
LWPOLYLINE
  5
283
100
AcDbEntity
  8
025-DWG
100
AcDbPolyline
 90
        6
 70
     0
 43
0.0
 38
0.421745
 10
429.270938
 20
773.382978
 10
429.426376
 20
773.239929
 10
429.534079
 20
773.151519
 10
429.552909
 20
773.151519
 10
429.475673
 20
773.239929
 10
429.331873
 20
773.382978
  0
LWPOLYLINE
  5
284
100
AcDbEntity
  8
025-DWG
100
AcDbPolyline
 90
        3
 70
     0
 43
0.0
 38
0.421745
 10
429.331873
 20
773.382978
 10
429.160805
 20
773.555067
 10
429.107793
 20
773.626348
  0
LWPOLYLINE
  5
285
100
AcDbEntity
  8
025-DWG
100
AcDbPolyline
 90
        7
 70
     0
 43
0.0
 38
0.421745
 10
429.149069
 20
773.382978
 10
429.280424
 20
773.261293
 10
429.384747
 20
773.172214
 10
429.434083
 20
773.139608
 10
429.415214
 20
773.172214
 10
429.333195
 20
773.261293
 10
429.210003
 20
773.382978
  0
LWPOLYLINE
  5
286
100
AcDbEntity
  8
025-DWG
100
AcDbPolyline
 90
        2
 70
     0
 43
0.0
 38
0.421745
 10
429.811135
 20
773.626348
 10
429.814748
 20
773.629343
  0
LWPOLYLINE
  5
287
100
AcDbEntity
  8
035-DWG
100
AcDbPolyline
 90
        2
 70
     0
 43
0.0
 38
0.421745
 10
429.801308
 20
774.126628
 10
429.81478
 20
773.629312
  0
LWPOLYLINE
  5
288
100
AcDbEntity
  8
025-DWG
100
AcDbPolyline
 90
        6
 70
     0
 43
0.0
 38
0.421745
 10
428.606642
 20
773.319989
 10
428.738968
 20
773.202119
 10
428.816836
 20
773.142604
 10
428.815122
 20
773.160649
 10
428.734378
 20
773.250429
 10
428.600657
 20
773.382978
  0
LWPOLYLINE
  5
289
100
AcDbEntity
  8
025-DWG
100
AcDbPolyline
 90
        3
 70
     0
 43
0.0
 38
0.421745
 10
428.600657
 20
773.382978
 10
428.429589
 20
773.555067
 10
428.376577
 20
773.626348
  0
LWPOLYLINE
  5
28A
100
AcDbEntity
  8
025-DWG
100
AcDbPolyline
 90
        4
 70
     0
 43
0.0
 38
0.421745
 10
428.742185
 20
773.626348
 10
428.791522
 20
773.593743
 10
428.895844
 20
773.504663
 10
429.027199
 20
773.382978
  0
LWPOLYLINE
  5
28B
100
AcDbEntity
  8
025-DWG
100
AcDbPolyline
 90
        4
 70
     0
 43
0.0
 38
0.421745
 10
428.966265
 20
773.382978
 10
428.843073
 20
773.504663
 10
428.761054
 20
773.593743
 10
428.742185
 20
773.626348
  0
LWPOLYLINE
  5
28C
100
AcDbEntity
  8
025-DWG
100
AcDbPolyline
 90
        3
 70
     0
 43
0.0
 38
0.421745
 10
428.620316
 20
773.626348
 10
428.716415
 20
773.555067
 10
428.90533
 20
773.382978
  0
LWPOLYLINE
  5
28D
100
AcDbEntity
  8
025-DWG
100
AcDbPolyline
 90
        3
 70
     0
 43
0.0
 38
0.421745
 10
428.844395
 20
773.382978
 10
428.673327
 20
773.555067
 10
428.620316
 20
773.626348
  0
LWPOLYLINE
  5
28E
100
AcDbEntity
  8
025-DWG
100
AcDbPolyline
 90
        3
 70
     0
 43
0.0
 38
0.421745
 10
428.498446
 20
773.626348
 10
428.594545
 20
773.555067
 10
428.783461
 20
773.382978
  0
LWPOLYLINE
  5
28F
100
AcDbEntity
  8
025-DWG
100
AcDbPolyline
 90
        6
 70
     0
 43
0.0
 38
0.421745
 10
428.661591
 20
773.382978
 10
428.817029
 20
773.239929
 10
428.924732
 20
773.151519
 10
428.943562
 20
773.151519
 10
428.866326
 20
773.239929
 10
428.722526
 20
773.382978
  0
LWPOLYLINE
  5
290
100
AcDbEntity
  8
025-DWG
100
AcDbPolyline
 90
        3
 70
     0
 43
0.0
 38
0.421745
 10
428.722526
 20
773.382978
 10
428.551458
 20
773.555067
 10
428.498446
 20
773.626348
  0
LWPOLYLINE
  5
291
100
AcDbEntity
  8
025-DWG
100
AcDbPolyline
 90
        4
 70
     0
 43
0.0
 38
0.421745
 10
428.376577
 20
773.626348
 10
428.425914
 20
773.593743
 10
428.530236
 20
773.504663
 10
428.661591
 20
773.382978
  0
ENDSEC
  0
SECTION
  2
OBJECTS
  0
DICTIONARY
  5
1A
100
AcDbDictionary
  3
ACAD_GROUP
350
18
  3
ACAD_MLINESTYLE
350
19
  0
DICTIONARY
  5
18
102
{ACAD_REACTORS
330
1A
102
}
100
AcDbDictionary
  0
DICTIONARY
  5
19
102
{ACAD_REACTORS
330
1A
102
}
100
AcDbDictionary
  3
STANDARD
350
1D
  0
MLINESTYLE
  5
1D
102
{ACAD_REACTORS
330
19
102
}
100
AcDbMlineStyle
  2
STANDARD
 70
     0
  3

 62
     0
 51
90.0
 52
90.0
 71
     2
 49
0.5
 62
   256
  6
BYLAYER
 49
-0.5
 62
   256
  6
BYLAYER
  0
ENDSEC
  0
EOF
